  0
SECTION
  2
HEADER
  9
$ACADVER
  1
AC1015
  9
$ACADMAINTVER
 70
    20
  9
$DWGCODEPAGE
  3
ANSI_1252
  9
$INSBASE
 10
0.0
 20
0.0
 30
0.0
  9
$EXTMIN
 10
139.9999999999999
 20
90.00741881195699
 30
-0.0000000000000622
  9
$EXTMAX
 10
189.9999247075357
 20
212.4634359740961
 30
30.00000000000002
  9
$LIMMIN
 10
0.0
 20
0.0
  9
$LIMMAX
 10
420.0
 20
297.0
  9
$ORTHOMODE
 70
     0
  9
$REGENMODE
 70
     1
  9
$FILLMODE
 70
     1
  9
$QTEXTMODE
 70
     0
  9
$MIRRTEXT
 70
     1
  9
$LTSCALE
 40
1.0
  9
$ATTMODE
 70
     1
  9
$TEXTSIZE
 40
2.5
  9
$TRACEWID
 40
1.0
  9
$TEXTSTYLE
  7
Standard
  9
$CLAYER
  8
0
  9
$CELTYPE
  6
ByLayer
  9
$CECOLOR
 62
   256
  9
$CELTSCALE
 40
1.0
  9
$DISPSILH
 70
     0
  9
$DIMSCALE
 40
1.0
  9
$DIMASZ
 40
2.5
  9
$DIMEXO
 40
0.625
  9
$DIMDLI
 40
3.75
  9
$DIMRND
 40
0.0
  9
$DIMDLE
 40
0.0
  9
$DIMEXE
 40
1.25
  9
$DIMTP
 40
0.0
  9
$DIMTM
 40
0.0
  9
$DIMTXT
 40
2.5
  9
$DIMCEN
 40
2.5
  9
$DIMTSZ
 40
0.0
  9
$DIMTOL
 70
     0
  9
$DIMLIM
 70
     0
  9
$DIMTIH
 70
     0
  9
$DIMTOH
 70
     0
  9
$DIMSE1
 70
     0
  9
$DIMSE2
 70
     0
  9
$DIMTAD
 70
     1
  9
$DIMZIN
 70
     8
  9
$DIMBLK
  1

  9
$DIMASO
 70
     1
  9
$DIMSHO
 70
     1
  9
$DIMPOST
  1

  9
$DIMAPOST
  1

  9
$DIMALT
 70
     0
  9
$DIMALTD
 70
     3
  9
$DIMALTF
 40
0.03937007874016
  9
$DIMLFAC
 40
1.0
  9
$DIMTOFL
 70
     1
  9
$DIMTVP
 40
0.0
  9
$DIMTIX
 70
     0
  9
$DIMSOXD
 70
     0
  9
$DIMSAH
 70
     0
  9
$DIMBLK1
  1

  9
$DIMBLK2
  1

  9
$DIMSTYLE
  2
ISO-25
  9
$DIMCLRD
 70
     0
  9
$DIMCLRE
 70
     0
  9
$DIMCLRT
 70
     0
  9
$DIMTFAC
 40
1.0
  9
$DIMGAP
 40
0.625
  9
$DIMJUST
 70
     0
  9
$DIMSD1
 70
     0
  9
$DIMSD2
 70
     0
  9
$DIMTOLJ
 70
     0
  9
$DIMTZIN
 70
     8
  9
$DIMALTZ
 70
     0
  9
$DIMALTTZ
 70
     0
  9
$DIMUPT
 70
     0
  9
$DIMDEC
 70
     2
  9
$DIMTDEC
 70
     2
  9
$DIMALTU
 70
     2
  9
$DIMALTTD
 70
     3
  9
$DIMTXSTY
  7
Standard
  9
$DIMAUNIT
 70
     0
  9
$DIMADEC
 70
     0
  9
$DIMALTRND
 40
0.0
  9
$DIMAZIN
 70
     0
  9
$DIMDSEP
 70
    44
  9
$DIMATFIT
 70
     3
  9
$DIMFRAC
 70
     0
  9
$DIMLDRBLK
  1

  9
$DIMLUNIT
 70
     2
  9
$DIMLWD
 70
    -2
  9
$DIMLWE
 70
    -2
  9
$DIMTMOVE
 70
     0
  9
$LUNITS
 70
     2
  9
$LUPREC
 70
     4
  9
$SKETCHINC
 40
1.0
  9
$FILLETRAD
 40
10.0
  9
$AUNITS
 70
     0
  9
$AUPREC
 70
     0
  9
$MENU
  1
.
  9
$ELEVATION
 40
0.0
  9
$PELEVATION
 40
0.0
  9
$THICKNESS
 40
0.0
  9
$LIMCHECK
 70
     0
  9
$CHAMFERA
 40
10.0
  9
$CHAMFERB
 40
10.0
  9
$CHAMFERC
 40
20.0
  9
$CHAMFERD
 40
0.0
  9
$SKPOLY
 70
     0
  9
$TDCREATE
 40
2453444.045845081
  9
$TDUCREATE
 40
2453444.004178414
  9
$TDUPDATE
 40
2454551.877249885
  9
$TDUUPDATE
 40
2454551.835583218
  9
$TDINDWG
 40
0.2871429861
  9
$TDUSRTIMER
 40
0.2871406366
  9
$USRTIMER
 70
     1
  9
$ANGBASE
 50
0.0
  9
$ANGDIR
 70
     0
  9
$PDMODE
 70
     0
  9
$PDSIZE
 40
0.0
  9
$PLINEWID
 40
0.0
  9
$SPLFRAME
 70
     0
  9
$SPLINETYPE
 70
     6
  9
$SPLINESEGS
 70
     8
  9
$HANDSEED
  5
66E
  9
$SURFTAB1
 70
     6
  9
$SURFTAB2
 70
     6
  9
$SURFTYPE
 70
     6
  9
$SURFU
 70
     6
  9
$SURFV
 70
     6
  9
$UCSBASE
  2

  9
$UCSNAME
  2

  9
$UCSORG
 10
0.0
 20
0.0
 30
0.0
  9
$UCSXDIR
 10
1.0
 20
0.0
 30
0.0
  9
$UCSYDIR
 10
0.0
 20
1.0
 30
0.0
  9
$UCSORTHOREF
  2

  9
$UCSORTHOVIEW
 70
     1
  9
$UCSORGTOP
 10
0.0
 20
0.0
 30
0.0
  9
$UCSORGBOTTOM
 10
0.0
 20
0.0
 30
0.0
  9
$UCSORGLEFT
 10
0.0
 20
0.0
 30
0.0
  9
$UCSORGRIGHT
 10
0.0
 20
0.0
 30
0.0
  9
$UCSORGFRONT
 10
0.0
 20
0.0
 30
0.0
  9
$UCSORGBACK
 10
0.0
 20
0.0
 30
0.0
  9
$PUCSBASE
  2

  9
$PUCSNAME
  2

  9
$PUCSORG
 10
0.0
 20
0.0
 30
0.0
  9
$PUCSXDIR
 10
1.0
 20
0.0
 30
0.0
  9
$PUCSYDIR
 10
0.0
 20
1.0
 30
0.0
  9
$PUCSORTHOREF
  2

  9
$PUCSORTHOVIEW
 70
     0
  9
$PUCSORGTOP
 10
0.0
 20
0.0
 30
0.0
  9
$PUCSORGBOTTOM
 10
0.0
 20
0.0
 30
0.0
  9
$PUCSORGLEFT
 10
0.0
 20
0.0
 30
0.0
  9
$PUCSORGRIGHT
 10
0.0
 20
0.0
 30
0.0
  9
$PUCSORGFRONT
 10
0.0
 20
0.0
 30
0.0
  9
$PUCSORGBACK
 10
0.0
 20
0.0
 30
0.0
  9
$USERI1
 70
     0
  9
$USERI2
 70
     0
  9
$USERI3
 70
     0
  9
$USERI4
 70
     0
  9
$USERI5
 70
     0
  9
$USERR1
 40
0.0
  9
$USERR2
 40
0.0
  9
$USERR3
 40
0.0
  9
$USERR4
 40
0.0
  9
$USERR5
 40
0.0
  9
$WORLDVIEW
 70
     1
  9
$SHADEDGE
 70
     3
  9
$SHADEDIF
 70
    70
  9
$TILEMODE
 70
     1
  9
$MAXACTVP
 70
    64
  9
$PINSBASE
 10
0.0
 20
0.0
 30
0.0
  9
$PLIMCHECK
 70
     0
  9
$PEXTMIN
 10
1.000000000000000E+20
 20
1.000000000000000E+20
 30
1.000000000000000E+20
  9
$PEXTMAX
 10
-1.000000000000000E+20
 20
-1.000000000000000E+20
 30
-1.000000000000000E+20
  9
$PLIMMIN
 10
0.0
 20
0.0
  9
$PLIMMAX
 10
420.0
 20
297.0
  9
$UNITMODE
 70
     0
  9
$VISRETAIN
 70
     1
  9
$PLINEGEN
 70
     0
  9
$PSLTSCALE
 70
     1
  9
$TREEDEPTH
 70
  3020
  9
$CMLSTYLE
  2
Standard
  9
$CMLJUST
 70
     0
  9
$CMLSCALE
 40
20.0
  9
$PROXYGRAPHICS
 70
     1
  9
$MEASUREMENT
 70
     1
  9
$CELWEIGHT
370
    -1
  9
$ENDCAPS
280
     0
  9
$JOINSTYLE
280
     0
  9
$LWDISPLAY
290
     0
  9
$INSUNITS
 70
     4
  9
$HYPERLINKBASE
  1

  9
$STYLESHEET
  1

  9
$XEDIT
290
     1
  9
$CEPSNTYPE
380
     0
  9
$PSTYLEMODE
290
     1
  9
$FINGERPRINTGUID
  2
{4D4AED24-3E0E-449C-A1FE-F13FADC76B23}
  9
$VERSIONGUID
  2
{D20A4C1B-4223-4CAF-8301-36A5838BEDA7}
  9
$EXTNAMES
290
     1
  9
$PSVPSCALE
 40
0.0
  9
$OLESTARTUP
290
     0
  0
ENDSEC
  0
SECTION
  2
CLASSES
  0
CLASS
  1
ACDBDICTIONARYWDFLT
  2
AcDbDictionaryWithDefault
  3
ObjectDBX Classes
 90
        0
280
     0
281
     0
  0
CLASS
  1
DICTIONARYVAR
  2
AcDbDictionaryVar
  3
ObjectDBX Classes
 90
        0
280
     0
281
     0
  0
CLASS
  1
DIMASSOC
  2
AcDbDimAssoc
  3
"AcDbDimAssoc|Product Desc:     AcDim ARX App For Dimension|Company:          Autodesk, Inc.|WEB Address:      www.autodesk.com"
 90
    32768
280
     0
281
     0
  0
CLASS
  1
TABLESTYLE
  2
AcDbTableStyle
  3
ObjectDBX Classes
 90
     4095
280
     0
281
     0
  0
CLASS
  1
ACAD_EVALUATION_GRAPH
  2
AcDbEvalGraph
  3
ObjectDBX Classes
 90
     1153
280
     0
281
     0
  0
CLASS
  1
BLOCKLINEARPARAMETER
  2
AcDbBlockLinearParameter
  3
ObjectDBX Classes
 90
     1153
280
     0
281
     0
  0
CLASS
  1
BLOCKLOOKUPPARAMETER
  2
AcDbBlockLookupParameter
  3
ObjectDBX Classes
 90
     1153
280
     0
281
     0
  0
CLASS
  1
BLOCKLOOKUPGRIP
  2
AcDbBlockLookupGrip
  3
ObjectDBX Classes
 90
     1153
280
     0
281
     0
  0
CLASS
  1
BLOCKGRIPLOCATIONCOMPONENT
  2
AcDbBlockGripExpr
  3
ObjectDBX Classes
 90
     1153
280
     0
281
     0
  0
CLASS
  1
BLOCKSTRETCHACTION
  2
AcDbBlockStretchAction
  3
ObjectDBX Classes
 90
     1153
280
     0
281
     0
  0
CLASS
  1
BLOCKSCALEACTION
  2
AcDbBlockScaleAction
  3
ObjectDBX Classes
 90
     1153
280
     0
281
     0
  0
CLASS
  1
BLOCKLOOKUPACTION
  2
AcDbBlockLookupAction
  3
ObjectDBX Classes
 90
     1153
280
     0
281
     0
  0
CLASS
  1
BLOCKVISIBILITYPARAMETER
  2
AcDbBlockVisibilityParameter
  3
ObjectDBX Classes
 90
     1153
280
     0
281
     0
  0
CLASS
  1
BLOCKLINEARGRIP
  2
AcDbBlockLinearGrip
  3
ObjectDBX Classes
 90
     1153
280
     0
281
     0
  0
CLASS
  1
ACDB_DYNAMICBLOCKPURGEPREVENTER_VERSION
  2
AcDbDynamicBlockPurgePreventer
  3
ObjectDBX Classes
 90
     1153
280
     0
281
     0
  0
CLASS
  1
ACDB_BLOCKREPRESENTATION_DATA
  2
AcDbBlockRepresentationData
  3
ObjectDBX Classes
 90
    33921
280
     0
281
     0
  0
CLASS
  1
MATERIAL
  2
AcDbMaterial
  3
ObjectDBX Classes
 90
     1153
280
     0
281
     0
  0
CLASS
  1
VISUALSTYLE
  2
AcDbVisualStyle
  3
ObjectDBX Classes
 90
     4095
280
     0
281
     0
  0
CLASS
  1
SCALE
  2
AcDbScale
  3
ObjectDBX Classes
 90
     1153
280
     0
281
     0
  0
CLASS
  1
MLEADERSTYLE
  2
AcDbMLeaderStyle
  3
ACDB_MLEADERSTYLE_CLASS
 90
     4095
280
     0
281
     0
  0
CLASS
  1
SOLID_BACKGROUND
  2
AcDbSolidBackground
  3
SCENEOE
 90
     4095
280
     0
281
     0
  0
CLASS
  1
NPOCOLLECTION
  2
AcDbImpNonPersistentObjectsCollection
  3
ObjectDBX Classes
 90
     1153
280
     0
281
     0
  0
CLASS
  1
CELLSTYLEMAP
  2
AcDbCellStyleMap
  3
ObjectDBX Classes
 90
     1152
280
     0
281
     0
  0
CLASS
  1
ACDBPLACEHOLDER
  2
AcDbPlaceHolder
  3
ObjectDBX Classes
 90
        0
280
     0
281
     0
  0
CLASS
  1
LAYOUT
  2
AcDbLayout
  3
ObjectDBX Classes
 90
        0
280
     0
281
     0
  0
ENDSEC
  0
SECTION
  2
TABLES
  0
TABLE
  2
VPORT
  5
8
330
0
100
AcDbSymbolTable
 70
     1
  0
VPORT
  5
5FE
330
8
100
AcDbSymbolTableRecord
100
AcDbViewportTableRecord
  2
*Active
 70
     0
 10
0.0
 20
0.0
 11
1.0
 21
1.0
 12
26.2762156086954
 22
-5.934256592652616
 13
0.0
 23
0.0
 14
10.0
 24
10.0
 15
10.0
 25
10.0
 16
0.0
 26
0.0
 36
1.0
 17
138.7237467450724
 27
157.1696839856791
 37
27.6060636025931
 40
123.747293265782
 41
1.80281690140845
 42
50.0
 43
0.0
 44
0.0
 50
0.0
 51
0.0
 71
     0
 72
   100
 73
     1
 74
     3
 75
     0
 76
     0
 77
     0
 78
     1
281
     0
 65
     1
110
0.0
120
0.0
130
0.0
111
1.0
121
0.0
131
0.0
112
0.0
122
1.0
132
0.0
 79
     0
146
0.0
  0
ENDTAB
  0
TABLE
  2
LTYPE
  5
5
330
0
100
AcDbSymbolTable
 70
     3
  0
LTYPE
  5
14
330
5
100
AcDbSymbolTableRecord
100
AcDbLinetypeTableRecord
  2
ByBlock
 70
     0
  3

 72
    65
 73
     0
 40
0.0
  0
LTYPE
  5
15
330
5
100
AcDbSymbolTableRecord
100
AcDbLinetypeTableRecord
  2
ByLayer
 70
     0
  3

 72
    65
 73
     0
 40
0.0
  0
LTYPE
  5
16
330
5
100
AcDbSymbolTableRecord
100
AcDbLinetypeTableRecord
  2
Continuous
 70
     0
  3
Solid line
 72
    65
 73
     0
 40
0.0
  0
LTYPE
  5
249
330
5
100
AcDbSymbolTableRecord
100
AcDbLinetypeTableRecord
  2
HIDDEN2
 70
     0
  3
Hidden (.5x) _ _ _ _ _ _ _ _ _ _ _ _ _ _ _ _ _
 72
    65
 73
     2
 40
4.762499999999998
 49
3.174999999999998
 74
     0
 49
-1.587499999999999
 74
     0
  0
ENDTAB
  0
TABLE
  2
LAYER
  5
2
330
0
100
AcDbSymbolTable
 70
     2
  0
LAYER
  5
10
102
{ACAD_XDICTIONARY
360
65A
102
}
330
2
100
AcDbSymbolTableRecord
100
AcDbLayerTableRecord
  2
0
 70
     0
 62
     7
  6
Continuous
370
    -3
390
F
  0
LAYER
  5
157
330
2
100
AcDbSymbolTableRecord
100
AcDbLayerTableRecord
  2
Defpoints
 70
     0
 62
     7
  6
Continuous
290
     0
370
    -3
390
F
  0
ENDTAB
  0
TABLE
  2
STYLE
  5
3
330
0
100
AcDbSymbolTable
 70
     1
  0
STYLE
  5
11
330
3
100
AcDbSymbolTableRecord
100
AcDbTextStyleTableRecord
  2
Standard
 70
     0
 40
0.0
 41
1.0
 50
0.0
 71
     0
 42
2.5
  3
txt
  4

  0
ENDTAB
  0
TABLE
  2
VIEW
  5
6
330
0
100
AcDbSymbolTable
 70
     0
  0
ENDTAB
  0
TABLE
  2
UCS
  5
7
330
0
100
AcDbSymbolTable
 70
     0
  0
ENDTAB
  0
TABLE
  2
APPID
  5
9
330
0
100
AcDbSymbolTable
 70
     7
  0
APPID
  5
12
330
9
100
AcDbSymbolTableRecord
100
AcDbRegAppTableRecord
  2
ACAD
 70
     0
  0
APPID
  5
24B
330
9
100
AcDbSymbolTableRecord
100
AcDbRegAppTableRecord
  2
AcDbBlockRepETag
 70
     0
  0
APPID
  5
24C
330
9
100
AcDbSymbolTableRecord
100
AcDbRegAppTableRecord
  2
AcDbDynamicBlockTrueName
 70
     0
  0
APPID
  5
24D
330
9
100
AcDbSymbolTableRecord
100
AcDbRegAppTableRecord
  2
AcDbDynamicBlockGUID
 70
     0
  0
APPID
  5
24E
330
9
100
AcDbSymbolTableRecord
100
AcDbRegAppTableRecord
  2
AcDbBlockRepBTag
 70
     0
  0
APPID
  5
2ED
330
9
100
AcDbSymbolTableRecord
100
AcDbRegAppTableRecord
  2
ACAD_EXEMPT_FROM_CAD_STANDARDS
 70
     0
  0
APPID
  5
64E
330
9
100
AcDbSymbolTableRecord
100
AcDbRegAppTableRecord
  2
ACAD_MLEADERVER
 70
     0
  0
ENDTAB
  0
TABLE
  2
DIMSTYLE
  5
A
330
0
100
AcDbSymbolTable
 70
     3
100
AcDbDimStyleTable
 71
     1
340
27
  0
DIMSTYLE
105
27
330
A
100
AcDbSymbolTableRecord
100
AcDbDimStyleTableRecord
  2
ISO-25
 70
     0
 41
2.5
 42
0.625
 43
3.75
 44
1.25
 73
     0
 74
     0
 77
     1
 78
     8
140
2.5
141
2.5
143
0.03937007874016
147
0.625
171
     3
172
     1
271
     2
272
     2
274
     3
278
    44
283
     0
284
     8
340
11
  0
DIMSTYLE
105
24A
330
A
100
AcDbSymbolTableRecord
100
AcDbDimStyleTableRecord
  2
Standard
 70
     0
340
11
  0
ENDTAB
  0
TABLE
  2
BLOCK_RECORD
  5
1
330
0
100
AcDbSymbolTable
 70
    14
  0
BLOCK_RECORD
  5
1F
330
1
100
AcDbSymbolTableRecord
100
AcDbBlockTableRecord
  2
*Model_Space
340
22
  0
BLOCK_RECORD
  5
1B
330
1
100
AcDbSymbolTableRecord
100
AcDbBlockTableRecord
  2
*Paper_Space
340
1E
  0
BLOCK_RECORD
  5
23
330
1
100
AcDbSymbolTableRecord
100
AcDbBlockTableRecord
  2
*Paper_Space0
340
26
  0
BLOCK_RECORD
  5
1E1
102
{ACAD_XDICTIONARY
360
1E2
102
}
330
1
100
AcDbSymbolTableRecord
100
AcDbBlockTableRecord
  2
*U1
340
0
1001
AcDbDynamicBlockTrueName
1000
Hex Socket Bolt (Side) - Metric
1001
AcDbDynamicBlockGUID
1000
{87FD71F5-1580-4446-88EC-135ADFF26D10}
1001
AcDbBlockRepETag
1070
     1
1071
       19
1001
ACAD
1000
DesignCenter Data
1002
{
1070
     1
1070
     4
1002
}
  0
BLOCK_RECORD
  5
232
102
{ACAD_XDICTIONARY
360
233
102
}
330
1
100
AcDbSymbolTableRecord
100
AcDbBlockTableRecord
  2
*U2
340
0
1001
AcDbBlockRepBTag
1070
     1
1005
1E1
  0
BLOCK_RECORD
  5
299
102
{ACAD_XDICTIONARY
360
2AF
102
}
330
1
100
AcDbSymbolTableRecord
100
AcDbBlockTableRecord
  2
*U3
340
0
1001
AcDbBlockRepBTag
1070
     1
1005
1E1
  0
BLOCK_RECORD
  5
2F5
102
{ACAD_XDICTIONARY
360
2F6
102
}
330
1
100
AcDbSymbolTableRecord
100
AcDbBlockTableRecord
  2
*U4
340
0
1001
AcDbBlockRepBTag
1070
     1
1005
1E1
  0
BLOCK_RECORD
  5
332
102
{ACAD_XDICTIONARY
360
348
102
}
330
1
100
AcDbSymbolTableRecord
100
AcDbBlockTableRecord
  2
*U5
340
0
1001
AcDbBlockRepBTag
1070
     1
1005
1E1
  0
BLOCK_RECORD
  5
3AB
102
{ACAD_XDICTIONARY
360
3AC
102
}
330
1
100
AcDbSymbolTableRecord
100
AcDbBlockTableRecord
  2
*U6
340
0
1001
AcDbBlockRepBTag
1070
     1
1005
1E1
  0
BLOCK_RECORD
  5
3E8
102
{ACAD_XDICTIONARY
360
3FE
102
}
330
1
100
AcDbSymbolTableRecord
100
AcDbBlockTableRecord
  2
*U7
340
0
1001
AcDbBlockRepBTag
1070
     1
1005
1E1
  0
BLOCK_RECORD
  5
45E
102
{ACAD_XDICTIONARY
360
474
102
}
330
1
100
AcDbSymbolTableRecord
100
AcDbBlockTableRecord
  2
*U8
340
0
1001
AcDbBlockRepBTag
1070
     1
1005
1E1
  0
BLOCK_RECORD
  5
493
102
{ACAD_XDICTIONARY
360
494
102
}
330
1
100
AcDbSymbolTableRecord
100
AcDbBlockTableRecord
  2
*U9
340
0
1001
AcDbBlockRepBTag
1070
     1
1005
1E1
  0
BLOCK_RECORD
  5
4D0
102
{ACAD_XDICTIONARY
360
4E6
102
}
330
1
100
AcDbSymbolTableRecord
100
AcDbBlockTableRecord
  2
*U10
340
0
1001
AcDbBlockRepBTag
1070
     1
1005
1E1
  0
BLOCK_RECORD
  5
547
102
{ACAD_XDICTIONARY
360
548
102
}
330
1
100
AcDbSymbolTableRecord
100
AcDbBlockTableRecord
  2
*U11
340
0
1001
AcDbBlockRepBTag
1070
     1
1005
1E1
  0
BLOCK_RECORD
  5
584
102
{ACAD_XDICTIONARY
360
59A
102
}
330
1
100
AcDbSymbolTableRecord
100
AcDbBlockTableRecord
  2
*U12
340
0
1001
AcDbBlockRepBTag
1070
     1
1005
1E1
  0
ENDTAB
  0
ENDSEC
  0
SECTION
  2
BLOCKS
  0
BLOCK
  5
20
330
1F
100
AcDbEntity
  8
0
100
AcDbBlockBegin
  2
*Model_Space
 70
     0
 10
0.0
 20
0.0
 30
0.0
  3
*Model_Space
  1

  0
ENDBLK
  5
21
330
1F
100
AcDbEntity
  8
0
100
AcDbBlockEnd
  0
BLOCK
  5
1C
330
1B
100
AcDbEntity
 67
     1
  8
0
100
AcDbBlockBegin
  2
*Paper_Space
 70
     0
 10
0.0
 20
0.0
 30
0.0
  3
*Paper_Space
  1

  0
ENDBLK
  5
1D
330
1B
100
AcDbEntity
 67
     1
  8
0
100
AcDbBlockEnd
  0
BLOCK
  5
24
330
23
100
AcDbEntity
 67
     1
  8
0
100
AcDbBlockBegin
  2
*Paper_Space0
 70
     0
 10
0.0
 20
0.0
 30
0.0
  3
*Paper_Space0
  1

  0
ENDBLK
  5
25
330
23
100
AcDbEntity
 67
     1
  8
0
100
AcDbBlockEnd
  0
BLOCK
  5
21D
330
1E1
100
AcDbEntity
  8
0
100
AcDbBlockBegin
  2
*U1
 70
     1
 10
0.0
 20
0.0
 30
0.0
  3
*U1
  1

  0
LINE
  5
21E
330
1E1
100
AcDbEntity
  8
0
100
AcDbLine
 10
0.0000000000000419
 20
8.0
 30
0.0
 11
0.0000000000000032
 21
-8.0
 31
0.0
1001
AcDbBlockRepETag
1070
     1
1071
        0
1005
21E
  0
LINE
  5
21F
330
1E1
100
AcDbEntity
  8
0
  6
HIDDEN2
100
AcDbLine
 10
-9.999999999999996
 20
-4.0
 30
0.0
 11
-5.000000000000056
 21
-3.999999999999996
 31
0.0
1001
AcDbBlockRepETag
1070
     1
1071
        1
1005
21F
  0
LINE
  5
220
330
1E1
100
AcDbEntity
  8
0
  6
HIDDEN2
100
AcDbLine
 10
-10.0
 20
-1.999999999999995
 30
0.0
 11
-5.857884035828933
 21
-1.999999999999995
 31
0.0
1001
AcDbBlockRepETag
1070
     1
1071
        2
1005
220
  0
LINE
  5
221
330
1E1
100
AcDbEntity
  8
0
  6
HIDDEN2
100
AcDbLine
 10
-10.0
 20
2.000000000000003
 30
0.0
 11
-5.857884035828933
 21
2.000000000000003
 31
0.0
1001
AcDbBlockRepETag
1070
     1
1071
        3
1005
221
  0
LINE
  5
222
330
1E1
100
AcDbEntity
  8
0
  6
HIDDEN2
100
AcDbLine
 10
-10.0
 20
4.0
 30
0.0
 11
-5.000000000000056
 21
4.000000000000006
 31
0.0
1001
AcDbBlockRepETag
1070
     1
1071
        4
1005
222
  0
LINE
  5
223
330
1E1
100
AcDbEntity
  8
0
100
AcDbLine
 10
28.0
 20
5.0
 30
0.0
 11
28.0
 21
-5.0
 31
0.0
1001
AcDbBlockRepETag
1070
     1
1071
        5
1005
223
  0
LINE
  5
224
330
1E1
100
AcDbEntity
  8
0
100
AcDbLine
 10
0.0000000000000105
 20
-5.0
 30
0.0
 11
57.71399999999999
 21
-5.0
 31
0.0
1001
AcDbBlockRepETag
1070
     1
1071
        6
1005
224
  0
LINE
  5
225
330
1E1
100
AcDbEntity
  8
0
100
AcDbLine
 10
57.71399999999999
 20
-5.0
 30
0.0
 11
60.0
 21
-3.5
 31
0.0
1001
AcDbBlockRepETag
1070
     1
1071
        7
1005
225
  0
LINE
  5
226
330
1E1
100
AcDbEntity
  8
0
100
AcDbLine
 10
60.0
 20
-3.5
 30
0.0
 11
60.0
 21
3.5
 31
0.0
1001
AcDbBlockRepETag
1070
     1
1071
        8
1005
226
  0
LINE
  5
227
330
1E1
100
AcDbEntity
  8
0
100
AcDbLine
 10
60.0
 20
3.5
 30
0.0
 11
57.71399999999999
 21
5.0
 31
0.0
1001
AcDbBlockRepETag
1070
     1
1071
        9
1005
227
  0
LINE
  5
228
330
1E1
100
AcDbEntity
  8
0
100
AcDbLine
 10
57.71399999999999
 20
5.0
 30
0.0
 11
0.0000000000000346
 21
5.0
 31
0.0
1001
AcDbBlockRepETag
1070
     1
1071
       10
1005
228
  0
LINE
  5
229
330
1E1
100
AcDbEntity
  8
0
100
AcDbLine
 10
57.71399999999999
 20
5.0
 30
0.0
 11
57.71399999999999
 21
-5.0
 31
0.0
1001
AcDbBlockRepETag
1070
     1
1071
       11
1005
229
  0
LINE
  5
22A
330
1E1
100
AcDbEntity
  8
0
  6
HIDDEN2
100
AcDbLine
 10
28.0
 20
3.5
 30
0.0
 11
60.0
 21
3.5
 31
0.0
1001
AcDbBlockRepETag
1070
     1
1071
       12
1005
22A
  0
LINE
  5
22B
330
1E1
100
AcDbEntity
  8
0
  6
HIDDEN2
100
AcDbLine
 10
27.99999999999995
 20
-3.5
 30
0.0
 11
60.0
 21
-3.5
 31
0.0
1001
AcDbBlockRepETag
1070
     1
1071
       13
1005
22B
  0
LWPOLYLINE
  5
22C
330
1E1
100
AcDbEntity
  8
0
100
AcDbPolyline
 90
        6
 70
     0
 43
0.0
 10
0.0000000000000419
 20
8.0
 10
-9.000000000000005
 20
7.999999999999986
 42
0.4142135623730951
 10
-10.0
 20
6.999999999999986
 10
-9.999999999999991
 20
-6.999999999999996
 42
0.4142135623730949
 10
-8.999999999999991
 20
-7.999999999999995
 10
0.0000000000000032
 20
-8.0
1001
AcDbBlockRepETag
1070
     1
1071
       14
1005
22C
  0
ARC
  5
22D
330
1E1
100
AcDbEntity
  8
0
  6
HIDDEN2
100
AcDbCircle
 10
-8.325262986633202
 20
4.242353760850106
 30
0.0
 40
3.334082973723146
100
AcDbArc
 50
317.7354410795077
 51
355.8315059124906
1001
AcDbBlockRepETag
1070
     1
1071
       15
1005
22D
  0
ARC
  5
22E
330
1E1
100
AcDbEntity
  8
0
  6
HIDDEN2
100
AcDbCircle
 10
-7.864372936074406
 20
-4.044658652526726
 30
0.0
 40
2.864721053115096
100
AcDbArc
 50
0.8932304093467465
 51
45.53982259865504
1001
AcDbBlockRepETag
1070
     1
1071
       16
1005
22E
  0
ARC
  5
22F
330
1E1
100
AcDbEntity
  8
0
  6
HIDDEN2
100
AcDbCircle
 10
-7.212692007290743
 20
0.0000000000000036
 30
0.0
 40
2.415678918965941
100
AcDbArc
 50
304.1138693446031
 51
55.88613065539755
1001
AcDbBlockRepETag
1070
     1
1071
       17
1005
22F
  0
ARC
  5
230
330
1E1
100
AcDbEntity
  8
0
  6
HIDDEN2
100
AcDbCircle
 10
-8.591344629319296
 20
-0.0000000000000067
 30
0.0
 40
5.375663330840209
100
AcDbArc
 50
311.9186420364473
 51
48.08135796355268
1001
AcDbBlockRepETag
1070
     1
1071
       18
1005
230
  0
ENDBLK
  5
231
330
1E1
100
AcDbEntity
  8
0
100
AcDbBlockEnd
  0
BLOCK
  5
234
330
232
100
AcDbEntity
  8
0
100
AcDbBlockBegin
  2
*U2
 70
     1
 10
0.0
 20
0.0
 30
0.0
  3
*U2
  1

  0
LINE
  5
235
330
232
100
AcDbEntity
  8
0
100
AcDbLine
 10
0.000000000000034
 20
6.5
 30
0.0
 11
0.0000000000000026
 21
-6.5
 31
0.0
1001
AcDbBlockRepETag
1070
     1
1071
        0
1005
235
  0
LINE
  5
236
330
232
100
AcDbEntity
  8
0
  6
HIDDEN2
100
AcDbLine
 10
-8.124999999999996
 20
-3.25
 30
0.0
 11
-4.062500000000046
 21
-3.249999999999996
 31
0.0
1001
AcDbBlockRepETag
1070
     1
1071
        1
1005
236
  0
LINE
  5
237
330
232
100
AcDbEntity
  8
0
  6
HIDDEN2
100
AcDbLine
 10
-8.125
 20
-1.624999999999996
 30
0.0
 11
-4.759530779111008
 21
-1.624999999999996
 31
0.0
1001
AcDbBlockRepETag
1070
     1
1071
        2
1005
237
  0
LINE
  5
238
330
232
100
AcDbEntity
  8
0
  6
HIDDEN2
100
AcDbLine
 10
-8.125000000000005
 20
1.625000000000001
 30
0.0
 11
-4.759530779111008
 21
1.625000000000001
 31
0.0
1001
AcDbBlockRepETag
1070
     1
1071
        3
1005
238
  0
LINE
  5
239
330
232
100
AcDbEntity
  8
0
  6
HIDDEN2
100
AcDbLine
 10
-8.125000000000001
 20
3.25
 30
0.0
 11
-4.062500000000046
 21
3.250000000000006
 31
0.0
1001
AcDbBlockRepETag
1070
     1
1071
        4
1005
239
  0
LINE
  5
23A
330
232
100
AcDbEntity
  8
0
100
AcDbLine
 10
32.0
 20
4.0
 30
0.0
 11
32.0
 21
-4.0
 31
0.0
1001
AcDbBlockRepETag
1070
     1
1071
        5
1005
23A
  0
LINE
  5
23B
330
232
100
AcDbEntity
  8
0
100
AcDbLine
 10
0.0000000000000106
 20
-4.0
 30
0.0
 11
57.71399999999999
 21
-4.0
 31
0.0
1001
AcDbBlockRepETag
1070
     1
1071
        6
1005
23B
  0
LINE
  5
23C
330
232
100
AcDbEntity
  8
0
100
AcDbLine
 10
57.71399999999999
 20
-4.0
 30
0.0
 11
60.0
 21
-2.7
 31
0.0
1001
AcDbBlockRepETag
1070
     1
1071
        7
1005
23C
  0
LINE
  5
23D
330
232
100
AcDbEntity
  8
0
100
AcDbLine
 10
60.0
 20
-2.7
 30
0.0
 11
60.0
 21
2.7
 31
0.0
1001
AcDbBlockRepETag
1070
     1
1071
        8
1005
23D
  0
LINE
  5
23E
330
232
100
AcDbEntity
  8
0
100
AcDbLine
 10
60.0
 20
2.7
 30
0.0
 11
57.71399999999999
 21
4.0
 31
0.0
1001
AcDbBlockRepETag
1070
     1
1071
        9
1005
23E
  0
LINE
  5
23F
330
232
100
AcDbEntity
  8
0
100
AcDbLine
 10
57.71399999999999
 20
4.0
 30
0.0
 11
0.0000000000000346
 21
4.0
 31
0.0
1001
AcDbBlockRepETag
1070
     1
1071
       10
1005
23F
  0
LINE
  5
240
330
232
100
AcDbEntity
  8
0
100
AcDbLine
 10
57.71399999999999
 20
4.0
 30
0.0
 11
57.71399999999999
 21
-4.0
 31
0.0
1001
AcDbBlockRepETag
1070
     1
1071
       11
1005
240
  0
LINE
  5
241
330
232
100
AcDbEntity
  8
0
  6
HIDDEN2
100
AcDbLine
 10
32.0
 20
2.7
 30
0.0
 11
60.0
 21
2.7
 31
0.0
1001
AcDbBlockRepETag
1070
     1
1071
       12
1005
241
  0
LINE
  5
242
330
232
100
AcDbEntity
  8
0
  6
HIDDEN2
100
AcDbLine
 10
31.99999999999995
 20
-2.7
 30
0.0
 11
60.0
 21
-2.7
 31
0.0
1001
AcDbBlockRepETag
1070
     1
1071
       13
1005
242
  0
LWPOLYLINE
  5
243
330
232
100
AcDbEntity
  8
0
100
AcDbPolyline
 90
        6
 70
     0
 43
0.0
 10
0.000000000000034
 20
6.5
 10
-7.312500000000003
 20
6.49999999999999
 42
0.4142135623730951
 10
-8.125000000000001
 20
5.687499999999988
 10
-8.124999999999994
 20
-5.687499999999997
 42
0.4142135623730949
 10
-7.312499999999993
 20
-6.499999999999996
 10
0.0000000000000026
 20
-6.5
1001
AcDbBlockRepETag
1070
     1
1071
       14
1005
243
  0
ARC
  5
244
330
232
100
AcDbEntity
  8
0
  6
HIDDEN2
100
AcDbCircle
 10
-6.764276176639477
 20
3.446912430690711
 30
0.0
 40
2.708942416150056
100
AcDbArc
 50
317.7354410795077
 51
355.8315059124906
1001
AcDbBlockRepETag
1070
     1
1071
       15
1005
244
  0
ARC
  5
245
330
232
100
AcDbEntity
  8
0
  6
HIDDEN2
100
AcDbCircle
 10
-6.389803010560456
 20
-3.286285155177964
 30
0.0
 40
2.327585855656015
100
AcDbArc
 50
0.8932304093467465
 51
45.53982259865504
1001
AcDbBlockRepETag
1070
     1
1071
       16
1005
245
  0
ARC
  5
246
330
232
100
AcDbEntity
  8
0
  6
HIDDEN2
100
AcDbCircle
 10
-5.860312255923728
 20
0.0000000000000029
 30
0.0
 40
1.962739121659828
100
AcDbArc
 50
304.1138693446031
 51
55.88613065539755
1001
AcDbBlockRepETag
1070
     1
1071
       17
1005
246
  0
ARC
  5
247
330
232
100
AcDbEntity
  8
0
  6
HIDDEN2
100
AcDbCircle
 10
-6.980467511321926
 20
-0.0000000000000054
 30
0.0
 40
4.36772645630767
100
AcDbArc
 50
311.9186420364473
 51
48.08135796355268
1001
AcDbBlockRepETag
1070
     1
1071
       18
1005
247
  0
ENDBLK
  5
248
330
232
100
AcDbEntity
  8
0
100
AcDbBlockEnd
  0
BLOCK
  5
29A
330
299
100
AcDbEntity
  8
0
100
AcDbBlockBegin
  2
*U3
 70
     1
 10
0.0
 20
0.0
 30
0.0
  3
*U3
  1

  0
LINE
  5
29C
330
299
100
AcDbEntity
  8
0
100
AcDbLine
 10
0.0000000000000144
 20
2.75
 30
0.0
 11
0.0000000000000011
 21
-2.75
 31
0.0
1001
AcDbBlockRepETag
1070
     1
1071
        0
1005
29C
  0
LINE
  5
29D
330
299
100
AcDbEntity
  8
0
  6
HIDDEN2
100
AcDbLine
 10
-3.437499999999998
 20
-1.375
 30
0.0
 11
-1.718750000000019
 21
-1.374999999999998
 31
0.0
1001
AcDbBlockRepETag
1070
     1
1071
        1
1005
29D
  0
LINE
  5
29E
330
299
100
AcDbEntity
  8
0
  6
HIDDEN2
100
AcDbLine
 10
-3.4375
 20
-0.6874999999999991
 30
0.0
 11
-2.013647637316196
 21
-0.6874999999999991
 31
0.0
1001
AcDbBlockRepETag
1070
     1
1071
        2
1005
29E
  0
LINE
  5
29F
330
299
100
AcDbEntity
  8
0
  6
HIDDEN2
100
AcDbLine
 10
-3.437500000000001
 20
0.6875000000000015
 30
0.0
 11
-2.013647637316196
 21
0.6875000000000015
 31
0.0
1001
AcDbBlockRepETag
1070
     1
1071
        3
1005
29F
  0
LINE
  5
2A0
330
299
100
AcDbEntity
  8
0
  6
HIDDEN2
100
AcDbLine
 10
-3.437500000000001
 20
1.375
 30
0.0
 11
-1.718750000000019
 21
1.375000000000001
 31
0.0
1001
AcDbBlockRepETag
1070
     1
1071
        4
1005
2A0
  0
LINE
  5
2A1
330
299
100
AcDbEntity
  8
0
100
AcDbLine
 10
42.0
 20
1.5
 30
0.0
 11
42.0
 21
-1.5
 31
0.0
1001
AcDbBlockRepETag
1070
     1
1071
        5
1005
2A1
  0
LINE
  5
2A2
330
299
100
AcDbEntity
  8
0
100
AcDbLine
 10
0.0000000000000109
 20
-1.5
 30
0.0
 11
57.71399999999999
 21
-1.5
 31
0.0
1001
AcDbBlockRepETag
1070
     1
1071
        6
1005
2A2
  0
LINE
  5
2A3
330
299
100
AcDbEntity
  8
0
100
AcDbLine
 10
57.71399999999999
 20
-1.5
 30
0.0
 11
60.0
 21
-0.7000000000000002
 31
0.0
1001
AcDbBlockRepETag
1070
     1
1071
        7
1005
2A3
  0
LINE
  5
2A4
330
299
100
AcDbEntity
  8
0
100
AcDbLine
 10
60.0
 20
-0.7000000000000002
 30
0.0
 11
60.0
 21
0.7000000000000002
 31
0.0
1001
AcDbBlockRepETag
1070
     1
1071
        8
1005
2A4
  0
LINE
  5
2A5
330
299
100
AcDbEntity
  8
0
100
AcDbLine
 10
60.0
 20
0.7000000000000002
 30
0.0
 11
57.71399999999999
 21
1.5
 31
0.0
1001
AcDbBlockRepETag
1070
     1
1071
        9
1005
2A5
  0
LINE
  5
2A6
330
299
100
AcDbEntity
  8
0
100
AcDbLine
 10
57.71399999999999
 20
1.5
 30
0.0
 11
0.0000000000000346
 21
1.5
 31
0.0
1001
AcDbBlockRepETag
1070
     1
1071
       10
1005
2A6
  0
LINE
  5
2A7
330
299
100
AcDbEntity
  8
0
100
AcDbLine
 10
57.71399999999999
 20
1.5
 30
0.0
 11
57.71399999999999
 21
-1.5
 31
0.0
1001
AcDbBlockRepETag
1070
     1
1071
       11
1005
2A7
  0
LINE
  5
2A8
330
299
100
AcDbEntity
  8
0
  6
HIDDEN2
100
AcDbLine
 10
42.0
 20
0.7000000000000002
 30
0.0
 11
60.0
 21
0.7000000000000002
 31
0.0
1001
AcDbBlockRepETag
1070
     1
1071
       12
1005
2A8
  0
LINE
  5
2A9
330
299
100
AcDbEntity
  8
0
  6
HIDDEN2
100
AcDbLine
 10
41.99999999999993
 20
-0.7000000000000002
 30
0.0
 11
60.0
 21
-0.7000000000000002
 31
0.0
1001
AcDbBlockRepETag
1070
     1
1071
       13
1005
2A9
  0
LWPOLYLINE
  5
2AA
330
299
100
AcDbEntity
  8
0
100
AcDbPolyline
 90
        6
 70
     0
 43
0.0
 10
0.0000000000000144
 20
2.75
 10
-3.093750000000001
 20
2.749999999999996
 42
0.4142135623730951
 10
-3.437500000000001
 20
2.406249999999995
 10
-3.437499999999996
 20
-2.406249999999999
 42
0.4142135623730949
 10
-3.093749999999996
 20
-2.749999999999998
 10
0.0000000000000011
 20
-2.75
1001
AcDbBlockRepETag
1070
     1
1071
       14
1005
2AA
  0
ARC
  5
2AB
330
299
100
AcDbEntity
  8
0
  6
HIDDEN2
100
AcDbCircle
 10
-2.861809151655163
 20
1.458309105292223
 30
0.0
 40
1.146091022217331
100
AcDbArc
 50
317.7354410795077
 51
355.8315059124906
1001
AcDbBlockRepETag
1070
     1
1071
       15
1005
2AB
  0
ARC
  5
2AC
330
299
100
AcDbEntity
  8
0
  6
HIDDEN2
100
AcDbCircle
 10
-2.703378196775576
 20
-1.390351411806061
 30
0.0
 40
0.9847478620083144
100
AcDbArc
 50
0.8932304093467461
 51
45.53982259865504
1001
AcDbBlockRepETag
1070
     1
1071
       16
1005
2AC
  0
ARC
  5
2AD
330
299
100
AcDbEntity
  8
0
  6
HIDDEN2
100
AcDbCircle
 10
-2.479362877506193
 20
0.0000000000000012
 30
0.0
 40
0.8303896283945427
100
AcDbArc
 50
304.1138693446031
 51
55.88613065539755
1001
AcDbBlockRepETag
1070
     1
1071
       17
1005
2AD
  0
ARC
  5
2AE
330
299
100
AcDbEntity
  8
0
  6
HIDDEN2
100
AcDbCircle
 10
-2.953274716328508
 20
-0.0000000000000023
 30
0.0
 40
1.847884269976321
100
AcDbArc
 50
311.9186420364473
 51
48.08135796355268
1001
AcDbBlockRepETag
1070
     1
1071
       18
1005
2AE
  0
ENDBLK
  5
29B
330
299
100
AcDbEntity
  8
0
100
AcDbBlockEnd
  0
BLOCK
  5
2F7
330
2F5
100
AcDbEntity
  8
0
100
AcDbBlockBegin
  2
*U4
 70
     1
 10
0.0
 20
0.0
 30
0.0
  3
*U4
  1

  0
LINE
  5
2F8
330
2F5
100
AcDbEntity
  8
0
100
AcDbLine
 10
0.000000000000034
 20
6.5
 30
0.0
 11
0.0000000000000026
 21
-6.5
 31
0.0
1001
AcDbBlockRepETag
1070
     1
1071
        0
1005
2F8
  0
LINE
  5
2F9
330
2F5
100
AcDbEntity
  8
0
  6
HIDDEN2
100
AcDbLine
 10
-8.124999999999996
 20
-3.25
 30
0.0
 11
-4.062500000000046
 21
-3.249999999999996
 31
0.0
1001
AcDbBlockRepETag
1070
     1
1071
        1
1005
2F9
  0
LINE
  5
2FA
330
2F5
100
AcDbEntity
  8
0
  6
HIDDEN2
100
AcDbLine
 10
-8.125
 20
-1.624999999999996
 30
0.0
 11
-4.759530779111008
 21
-1.624999999999996
 31
0.0
1001
AcDbBlockRepETag
1070
     1
1071
        2
1005
2FA
  0
LINE
  5
2FB
330
2F5
100
AcDbEntity
  8
0
  6
HIDDEN2
100
AcDbLine
 10
-8.125000000000005
 20
1.625000000000001
 30
0.0
 11
-4.759530779111008
 21
1.625000000000001
 31
0.0
1001
AcDbBlockRepETag
1070
     1
1071
        3
1005
2FB
  0
LINE
  5
2FC
330
2F5
100
AcDbEntity
  8
0
  6
HIDDEN2
100
AcDbLine
 10
-8.125000000000001
 20
3.25
 30
0.0
 11
-4.062500000000046
 21
3.250000000000006
 31
0.0
1001
AcDbBlockRepETag
1070
     1
1071
        4
1005
2FC
  0
LINE
  5
2FD
330
2F5
100
AcDbEntity
  8
0
100
AcDbLine
 10
32.0
 20
4.0
 30
0.0
 11
32.0
 21
-4.0
 31
0.0
1001
AcDbBlockRepETag
1070
     1
1071
        5
1005
2FD
  0
LINE
  5
2FE
330
2F5
100
AcDbEntity
  8
0
100
AcDbLine
 10
0.0000000000000106
 20
-4.0
 30
0.0
 11
57.71399999999999
 21
-4.0
 31
0.0
1001
AcDbBlockRepETag
1070
     1
1071
        6
1005
2FE
  0
LINE
  5
2FF
330
2F5
100
AcDbEntity
  8
0
100
AcDbLine
 10
57.71399999999999
 20
-4.0
 30
0.0
 11
60.0
 21
-2.7
 31
0.0
1001
AcDbBlockRepETag
1070
     1
1071
        7
1005
2FF
  0
LINE
  5
300
330
2F5
100
AcDbEntity
  8
0
100
AcDbLine
 10
60.0
 20
-2.7
 30
0.0
 11
60.0
 21
2.7
 31
0.0
1001
AcDbBlockRepETag
1070
     1
1071
        8
1005
300
  0
LINE
  5
301
330
2F5
100
AcDbEntity
  8
0
100
AcDbLine
 10
60.0
 20
2.7
 30
0.0
 11
57.71399999999999
 21
4.0
 31
0.0
1001
AcDbBlockRepETag
1070
     1
1071
        9
1005
301
  0
LINE
  5
302
330
2F5
100
AcDbEntity
  8
0
100
AcDbLine
 10
57.71399999999999
 20
4.0
 30
0.0
 11
0.0000000000000346
 21
4.0
 31
0.0
1001
AcDbBlockRepETag
1070
     1
1071
       10
1005
302
  0
LINE
  5
303
330
2F5
100
AcDbEntity
  8
0
100
AcDbLine
 10
57.71399999999999
 20
4.0
 30
0.0
 11
57.71399999999999
 21
-4.0
 31
0.0
1001
AcDbBlockRepETag
1070
     1
1071
       11
1005
303
  0
LINE
  5
304
330
2F5
100
AcDbEntity
  8
0
  6
HIDDEN2
100
AcDbLine
 10
32.0
 20
2.7
 30
0.0
 11
60.0
 21
2.7
 31
0.0
1001
AcDbBlockRepETag
1070
     1
1071
       12
1005
304
  0
LINE
  5
305
330
2F5
100
AcDbEntity
  8
0
  6
HIDDEN2
100
AcDbLine
 10
31.99999999999995
 20
-2.7
 30
0.0
 11
60.0
 21
-2.7
 31
0.0
1001
AcDbBlockRepETag
1070
     1
1071
       13
1005
305
  0
LWPOLYLINE
  5
306
330
2F5
100
AcDbEntity
  8
0
100
AcDbPolyline
 90
        6
 70
     0
 43
0.0
 10
0.000000000000034
 20
6.5
 10
-7.312500000000003
 20
6.49999999999999
 42
0.4142135623730951
 10
-8.125000000000001
 20
5.687499999999988
 10
-8.124999999999994
 20
-5.687499999999997
 42
0.4142135623730949
 10
-7.312499999999993
 20
-6.499999999999996
 10
0.0000000000000026
 20
-6.5
1001
AcDbBlockRepETag
1070
     1
1071
       14
1005
306
  0
ARC
  5
307
330
2F5
100
AcDbEntity
  8
0
  6
HIDDEN2
100
AcDbCircle
 10
-6.764276176639477
 20
3.446912430690711
 30
0.0
 40
2.708942416150056
100
AcDbArc
 50
317.7354410795077
 51
355.8315059124906
1001
AcDbBlockRepETag
1070
     1
1071
       15
1005
307
  0
ARC
  5
308
330
2F5
100
AcDbEntity
  8
0
  6
HIDDEN2
100
AcDbCircle
 10
-6.389803010560456
 20
-3.286285155177964
 30
0.0
 40
2.327585855656015
100
AcDbArc
 50
0.8932304093467465
 51
45.53982259865504
1001
AcDbBlockRepETag
1070
     1
1071
       16
1005
308
  0
ARC
  5
309
330
2F5
100
AcDbEntity
  8
0
  6
HIDDEN2
100
AcDbCircle
 10
-5.860312255923728
 20
0.0000000000000029
 30
0.0
 40
1.962739121659828
100
AcDbArc
 50
304.1138693446031
 51
55.88613065539755
1001
AcDbBlockRepETag
1070
     1
1071
       17
1005
309
  0
ARC
  5
30A
330
2F5
100
AcDbEntity
  8
0
  6
HIDDEN2
100
AcDbCircle
 10
-6.980467511321926
 20
-0.0000000000000054
 30
0.0
 40
4.36772645630767
100
AcDbArc
 50
311.9186420364473
 51
48.08135796355268
1001
AcDbBlockRepETag
1070
     1
1071
       18
1005
30A
  0
ENDBLK
  5
30B
330
2F5
100
AcDbEntity
  8
0
100
AcDbBlockEnd
  0
BLOCK
  5
333
330
332
100
AcDbEntity
  8
0
100
AcDbBlockBegin
  2
*U5
 70
     1
 10
0.0
 20
0.0
 30
0.0
  3
*U5
  1

  0
LINE
  5
335
330
332
100
AcDbEntity
  8
0
100
AcDbLine
 10
0.000000000000034
 20
6.5
 30
0.0
 11
0.0000000000000026
 21
-6.5
 31
0.0
1001
AcDbBlockRepETag
1070
     1
1071
        0
1005
335
  0
LINE
  5
336
330
332
100
AcDbEntity
  8
0
  6
HIDDEN2
100
AcDbLine
 10
-8.124999999999996
 20
-3.25
 30
0.0
 11
-4.062500000000046
 21
-3.249999999999996
 31
0.0
1001
AcDbBlockRepETag
1070
     1
1071
        1
1005
336
  0
LINE
  5
337
330
332
100
AcDbEntity
  8
0
  6
HIDDEN2
100
AcDbLine
 10
-8.125
 20
-1.624999999999996
 30
0.0
 11
-4.759530779111008
 21
-1.624999999999996
 31
0.0
1001
AcDbBlockRepETag
1070
     1
1071
        2
1005
337
  0
LINE
  5
338
330
332
100
AcDbEntity
  8
0
  6
HIDDEN2
100
AcDbLine
 10
-8.125000000000005
 20
1.625000000000001
 30
0.0
 11
-4.759530779111008
 21
1.625000000000001
 31
0.0
1001
AcDbBlockRepETag
1070
     1
1071
        3
1005
338
  0
LINE
  5
339
330
332
100
AcDbEntity
  8
0
  6
HIDDEN2
100
AcDbLine
 10
-8.125000000000001
 20
3.25
 30
0.0
 11
-4.062500000000046
 21
3.250000000000006
 31
0.0
1001
AcDbBlockRepETag
1070
     1
1071
        4
1005
339
  0
LINE
  5
33A
330
332
100
AcDbEntity
  8
0
100
AcDbLine
 10
32.0
 20
4.0
 30
0.0
 11
32.0
 21
-4.0
 31
0.0
1001
AcDbBlockRepETag
1070
     1
1071
        5
1005
33A
  0
LINE
  5
33B
330
332
100
AcDbEntity
  8
0
100
AcDbLine
 10
0.0000000000000106
 20
-4.0
 30
0.0
 11
57.71399999999999
 21
-4.0
 31
0.0
1001
AcDbBlockRepETag
1070
     1
1071
        6
1005
33B
  0
LINE
  5
33C
330
332
100
AcDbEntity
  8
0
100
AcDbLine
 10
57.71399999999999
 20
-4.0
 30
0.0
 11
60.0
 21
-2.7
 31
0.0
1001
AcDbBlockRepETag
1070
     1
1071
        7
1005
33C
  0
LINE
  5
33D
330
332
100
AcDbEntity
  8
0
100
AcDbLine
 10
60.0
 20
-2.7
 30
0.0
 11
60.0
 21
2.7
 31
0.0
1001
AcDbBlockRepETag
1070
     1
1071
        8
1005
33D
  0
LINE
  5
33E
330
332
100
AcDbEntity
  8
0
100
AcDbLine
 10
60.0
 20
2.7
 30
0.0
 11
57.71399999999999
 21
4.0
 31
0.0
1001
AcDbBlockRepETag
1070
     1
1071
        9
1005
33E
  0
LINE
  5
33F
330
332
100
AcDbEntity
  8
0
100
AcDbLine
 10
57.71399999999999
 20
4.0
 30
0.0
 11
0.0000000000000346
 21
4.0
 31
0.0
1001
AcDbBlockRepETag
1070
     1
1071
       10
1005
33F
  0
LINE
  5
340
330
332
100
AcDbEntity
  8
0
100
AcDbLine
 10
57.71399999999999
 20
4.0
 30
0.0
 11
57.71399999999999
 21
-4.0
 31
0.0
1001
AcDbBlockRepETag
1070
     1
1071
       11
1005
340
  0
LINE
  5
341
330
332
100
AcDbEntity
  8
0
  6
HIDDEN2
100
AcDbLine
 10
32.0
 20
2.7
 30
0.0
 11
60.0
 21
2.7
 31
0.0
1001
AcDbBlockRepETag
1070
     1
1071
       12
1005
341
  0
LINE
  5
342
330
332
100
AcDbEntity
  8
0
  6
HIDDEN2
100
AcDbLine
 10
31.99999999999995
 20
-2.7
 30
0.0
 11
60.0
 21
-2.7
 31
0.0
1001
AcDbBlockRepETag
1070
     1
1071
       13
1005
342
  0
LWPOLYLINE
  5
343
330
332
100
AcDbEntity
  8
0
100
AcDbPolyline
 90
        6
 70
     0
 43
0.0
 10
0.000000000000034
 20
6.5
 10
-7.312500000000003
 20
6.49999999999999
 42
0.4142135623730951
 10
-8.125000000000001
 20
5.687499999999988
 10
-8.124999999999994
 20
-5.687499999999997
 42
0.4142135623730949
 10
-7.312499999999993
 20
-6.499999999999996
 10
0.0000000000000026
 20
-6.5
1001
AcDbBlockRepETag
1070
     1
1071
       14
1005
343
  0
ARC
  5
344
330
332
100
AcDbEntity
  8
0
  6
HIDDEN2
100
AcDbCircle
 10
-6.764276176639477
 20
3.446912430690711
 30
0.0
 40
2.708942416150056
100
AcDbArc
 50
317.7354410795077
 51
355.8315059124906
1001
AcDbBlockRepETag
1070
     1
1071
       15
1005
344
  0
ARC
  5
345
330
332
100
AcDbEntity
  8
0
  6
HIDDEN2
100
AcDbCircle
 10
-6.389803010560456
 20
-3.286285155177964
 30
0.0
 40
2.327585855656015
100
AcDbArc
 50
0.8932304093467465
 51
45.53982259865504
1001
AcDbBlockRepETag
1070
     1
1071
       16
1005
345
  0
ARC
  5
346
330
332
100
AcDbEntity
  8
0
  6
HIDDEN2
100
AcDbCircle
 10
-5.860312255923728
 20
0.0000000000000029
 30
0.0
 40
1.962739121659828
100
AcDbArc
 50
304.1138693446031
 51
55.88613065539755
1001
AcDbBlockRepETag
1070
     1
1071
       17
1005
346
  0
ARC
  5
347
330
332
100
AcDbEntity
  8
0
  6
HIDDEN2
100
AcDbCircle
 10
-6.980467511321926
 20
-0.0000000000000054
 30
0.0
 40
4.36772645630767
100
AcDbArc
 50
311.9186420364473
 51
48.08135796355268
1001
AcDbBlockRepETag
1070
     1
1071
       18
1005
347
  0
ENDBLK
  5
334
330
332
100
AcDbEntity
  8
0
100
AcDbBlockEnd
  0
BLOCK
  5
3AD
330
3AB
100
AcDbEntity
  8
0
100
AcDbBlockBegin
  2
*U6
 70
     1
 10
0.0
 20
0.0
 30
0.0
  3
*U6
  1

  0
LINE
  5
3AE
330
3AB
100
AcDbEntity
  8
0
100
AcDbLine
 10
0.000000000000034
 20
6.5
 30
0.0
 11
0.0000000000000026
 21
-6.5
 31
0.0
1001
AcDbBlockRepETag
1070
     1
1071
        0
1005
3AE
  0
LINE
  5
3AF
330
3AB
100
AcDbEntity
  8
0
  6
HIDDEN2
100
AcDbLine
 10
-8.124999999999996
 20
-3.25
 30
0.0
 11
-4.062500000000046
 21
-3.249999999999996
 31
0.0
1001
AcDbBlockRepETag
1070
     1
1071
        1
1005
3AF
  0
LINE
  5
3B0
330
3AB
100
AcDbEntity
  8
0
  6
HIDDEN2
100
AcDbLine
 10
-8.125
 20
-1.624999999999996
 30
0.0
 11
-4.759530779111008
 21
-1.624999999999996
 31
0.0
1001
AcDbBlockRepETag
1070
     1
1071
        2
1005
3B0
  0
LINE
  5
3B1
330
3AB
100
AcDbEntity
  8
0
  6
HIDDEN2
100
AcDbLine
 10
-8.125000000000005
 20
1.625000000000001
 30
0.0
 11
-4.759530779111008
 21
1.625000000000001
 31
0.0
1001
AcDbBlockRepETag
1070
     1
1071
        3
1005
3B1
  0
LINE
  5
3B2
330
3AB
100
AcDbEntity
  8
0
  6
HIDDEN2
100
AcDbLine
 10
-8.125000000000001
 20
3.25
 30
0.0
 11
-4.062500000000046
 21
3.250000000000006
 31
0.0
1001
AcDbBlockRepETag
1070
     1
1071
        4
1005
3B2
  0
LINE
  5
3B3
330
3AB
100
AcDbEntity
  8
0
100
AcDbLine
 10
32.0
 20
4.0
 30
0.0
 11
32.0
 21
-4.0
 31
0.0
1001
AcDbBlockRepETag
1070
     1
1071
        5
1005
3B3
  0
LINE
  5
3B4
330
3AB
100
AcDbEntity
  8
0
100
AcDbLine
 10
0.0000000000000106
 20
-4.0
 30
0.0
 11
57.71399999999999
 21
-4.0
 31
0.0
1001
AcDbBlockRepETag
1070
     1
1071
        6
1005
3B4
  0
LINE
  5
3B5
330
3AB
100
AcDbEntity
  8
0
100
AcDbLine
 10
57.71399999999999
 20
-4.0
 30
0.0
 11
60.0
 21
-2.7
 31
0.0
1001
AcDbBlockRepETag
1070
     1
1071
        7
1005
3B5
  0
LINE
  5
3B6
330
3AB
100
AcDbEntity
  8
0
100
AcDbLine
 10
60.0
 20
-2.7
 30
0.0
 11
60.0
 21
2.7
 31
0.0
1001
AcDbBlockRepETag
1070
     1
1071
        8
1005
3B6
  0
LINE
  5
3B7
330
3AB
100
AcDbEntity
  8
0
100
AcDbLine
 10
60.0
 20
2.7
 30
0.0
 11
57.71399999999999
 21
4.0
 31
0.0
1001
AcDbBlockRepETag
1070
     1
1071
        9
1005
3B7
  0
LINE
  5
3B8
330
3AB
100
AcDbEntity
  8
0
100
AcDbLine
 10
57.71399999999999
 20
4.0
 30
0.0
 11
0.0000000000000346
 21
4.0
 31
0.0
1001
AcDbBlockRepETag
1070
     1
1071
       10
1005
3B8
  0
LINE
  5
3B9
330
3AB
100
AcDbEntity
  8
0
100
AcDbLine
 10
57.71399999999999
 20
4.0
 30
0.0
 11
57.71399999999999
 21
-4.0
 31
0.0
1001
AcDbBlockRepETag
1070
     1
1071
       11
1005
3B9
  0
LINE
  5
3BA
330
3AB
100
AcDbEntity
  8
0
  6
HIDDEN2
100
AcDbLine
 10
32.0
 20
2.7
 30
0.0
 11
60.0
 21
2.7
 31
0.0
1001
AcDbBlockRepETag
1070
     1
1071
       12
1005
3BA
  0
LINE
  5
3BB
330
3AB
100
AcDbEntity
  8
0
  6
HIDDEN2
100
AcDbLine
 10
31.99999999999995
 20
-2.7
 30
0.0
 11
60.0
 21
-2.7
 31
0.0
1001
AcDbBlockRepETag
1070
     1
1071
       13
1005
3BB
  0
LWPOLYLINE
  5
3BC
330
3AB
100
AcDbEntity
  8
0
100
AcDbPolyline
 90
        6
 70
     0
 43
0.0
 10
0.000000000000034
 20
6.5
 10
-7.312500000000003
 20
6.49999999999999
 42
0.4142135623730951
 10
-8.125000000000001
 20
5.687499999999988
 10
-8.124999999999994
 20
-5.687499999999997
 42
0.4142135623730949
 10
-7.312499999999993
 20
-6.499999999999996
 10
0.0000000000000026
 20
-6.5
1001
AcDbBlockRepETag
1070
     1
1071
       14
1005
3BC
  0
ARC
  5
3BD
330
3AB
100
AcDbEntity
  8
0
  6
HIDDEN2
100
AcDbCircle
 10
-6.764276176639477
 20
3.446912430690711
 30
0.0
 40
2.708942416150056
100
AcDbArc
 50
317.7354410795077
 51
355.8315059124906
1001
AcDbBlockRepETag
1070
     1
1071
       15
1005
3BD
  0
ARC
  5
3BE
330
3AB
100
AcDbEntity
  8
0
  6
HIDDEN2
100
AcDbCircle
 10
-6.389803010560456
 20
-3.286285155177964
 30
0.0
 40
2.327585855656015
100
AcDbArc
 50
0.8932304093467465
 51
45.53982259865504
1001
AcDbBlockRepETag
1070
     1
1071
       16
1005
3BE
  0
ARC
  5
3BF
330
3AB
100
AcDbEntity
  8
0
  6
HIDDEN2
100
AcDbCircle
 10
-5.860312255923728
 20
0.0000000000000029
 30
0.0
 40
1.962739121659828
100
AcDbArc
 50
304.1138693446031
 51
55.88613065539755
1001
AcDbBlockRepETag
1070
     1
1071
       17
1005
3BF
  0
ARC
  5
3C0
330
3AB
100
AcDbEntity
  8
0
  6
HIDDEN2
100
AcDbCircle
 10
-6.980467511321926
 20
-0.0000000000000054
 30
0.0
 40
4.36772645630767
100
AcDbArc
 50
311.9186420364473
 51
48.08135796355268
1001
AcDbBlockRepETag
1070
     1
1071
       18
1005
3C0
  0
ENDBLK
  5
3C1
330
3AB
100
AcDbEntity
  8
0
100
AcDbBlockEnd
  0
BLOCK
  5
3E9
330
3E8
100
AcDbEntity
  8
0
100
AcDbBlockBegin
  2
*U7
 70
     1
 10
0.0
 20
0.0
 30
0.0
  3
*U7
  1

  0
LINE
  5
3EB
330
3E8
100
AcDbEntity
  8
0
100
AcDbLine
 10
0.000000000000034
 20
6.5
 30
0.0
 11
0.0000000000000026
 21
-6.5
 31
0.0
1001
AcDbBlockRepETag
1070
     1
1071
        0
1005
3EB
  0
LINE
  5
3EC
330
3E8
100
AcDbEntity
  8
0
  6
HIDDEN2
100
AcDbLine
 10
-8.124999999999996
 20
-3.25
 30
0.0
 11
-4.062500000000046
 21
-3.249999999999996
 31
0.0
1001
AcDbBlockRepETag
1070
     1
1071
        1
1005
3EC
  0
LINE
  5
3ED
330
3E8
100
AcDbEntity
  8
0
  6
HIDDEN2
100
AcDbLine
 10
-8.125
 20
-1.624999999999996
 30
0.0
 11
-4.759530779111008
 21
-1.624999999999996
 31
0.0
1001
AcDbBlockRepETag
1070
     1
1071
        2
1005
3ED
  0
LINE
  5
3EE
330
3E8
100
AcDbEntity
  8
0
  6
HIDDEN2
100
AcDbLine
 10
-8.125000000000005
 20
1.625000000000001
 30
0.0
 11
-4.759530779111008
 21
1.625000000000001
 31
0.0
1001
AcDbBlockRepETag
1070
     1
1071
        3
1005
3EE
  0
LINE
  5
3EF
330
3E8
100
AcDbEntity
  8
0
  6
HIDDEN2
100
AcDbLine
 10
-8.125000000000001
 20
3.25
 30
0.0
 11
-4.062500000000046
 21
3.250000000000006
 31
0.0
1001
AcDbBlockRepETag
1070
     1
1071
        4
1005
3EF
  0
LINE
  5
3F0
330
3E8
100
AcDbEntity
  8
0
100
AcDbLine
 10
32.0
 20
4.0
 30
0.0
 11
32.0
 21
-4.0
 31
0.0
1001
AcDbBlockRepETag
1070
     1
1071
        5
1005
3F0
  0
LINE
  5
3F1
330
3E8
100
AcDbEntity
  8
0
100
AcDbLine
 10
0.0000000000000106
 20
-4.0
 30
0.0
 11
57.71399999999999
 21
-4.0
 31
0.0
1001
AcDbBlockRepETag
1070
     1
1071
        6
1005
3F1
  0
LINE
  5
3F2
330
3E8
100
AcDbEntity
  8
0
100
AcDbLine
 10
57.71399999999999
 20
-4.0
 30
0.0
 11
60.0
 21
-2.7
 31
0.0
1001
AcDbBlockRepETag
1070
     1
1071
        7
1005
3F2
  0
LINE
  5
3F3
330
3E8
100
AcDbEntity
  8
0
100
AcDbLine
 10
60.0
 20
-2.7
 30
0.0
 11
60.0
 21
2.7
 31
0.0
1001
AcDbBlockRepETag
1070
     1
1071
        8
1005
3F3
  0
LINE
  5
3F4
330
3E8
100
AcDbEntity
  8
0
100
AcDbLine
 10
60.0
 20
2.7
 30
0.0
 11
57.71399999999999
 21
4.0
 31
0.0
1001
AcDbBlockRepETag
1070
     1
1071
        9
1005
3F4
  0
LINE
  5
3F5
330
3E8
100
AcDbEntity
  8
0
100
AcDbLine
 10
57.71399999999999
 20
4.0
 30
0.0
 11
0.0000000000000346
 21
4.0
 31
0.0
1001
AcDbBlockRepETag
1070
     1
1071
       10
1005
3F5
  0
LINE
  5
3F6
330
3E8
100
AcDbEntity
  8
0
100
AcDbLine
 10
57.71399999999999
 20
4.0
 30
0.0
 11
57.71399999999999
 21
-4.0
 31
0.0
1001
AcDbBlockRepETag
1070
     1
1071
       11
1005
3F6
  0
LINE
  5
3F7
330
3E8
100
AcDbEntity
  8
0
  6
HIDDEN2
100
AcDbLine
 10
32.0
 20
2.7
 30
0.0
 11
60.0
 21
2.7
 31
0.0
1001
AcDbBlockRepETag
1070
     1
1071
       12
1005
3F7
  0
LINE
  5
3F8
330
3E8
100
AcDbEntity
  8
0
  6
HIDDEN2
100
AcDbLine
 10
31.99999999999995
 20
-2.7
 30
0.0
 11
60.0
 21
-2.7
 31
0.0
1001
AcDbBlockRepETag
1070
     1
1071
       13
1005
3F8
  0
LWPOLYLINE
  5
3F9
330
3E8
100
AcDbEntity
  8
0
100
AcDbPolyline
 90
        6
 70
     0
 43
0.0
 10
0.000000000000034
 20
6.5
 10
-7.312500000000003
 20
6.49999999999999
 42
0.4142135623730951
 10
-8.125000000000001
 20
5.687499999999988
 10
-8.124999999999994
 20
-5.687499999999997
 42
0.4142135623730949
 10
-7.312499999999993
 20
-6.499999999999996
 10
0.0000000000000026
 20
-6.5
1001
AcDbBlockRepETag
1070
     1
1071
       14
1005
3F9
  0
ARC
  5
3FA
330
3E8
100
AcDbEntity
  8
0
  6
HIDDEN2
100
AcDbCircle
 10
-6.764276176639477
 20
3.446912430690711
 30
0.0
 40
2.708942416150056
100
AcDbArc
 50
317.7354410795077
 51
355.8315059124906
1001
AcDbBlockRepETag
1070
     1
1071
       15
1005
3FA
  0
ARC
  5
3FB
330
3E8
100
AcDbEntity
  8
0
  6
HIDDEN2
100
AcDbCircle
 10
-6.389803010560456
 20
-3.286285155177964
 30
0.0
 40
2.327585855656015
100
AcDbArc
 50
0.8932304093467465
 51
45.53982259865504
1001
AcDbBlockRepETag
1070
     1
1071
       16
1005
3FB
  0
ARC
  5
3FC
330
3E8
100
AcDbEntity
  8
0
  6
HIDDEN2
100
AcDbCircle
 10
-5.860312255923728
 20
0.0000000000000029
 30
0.0
 40
1.962739121659828
100
AcDbArc
 50
304.1138693446031
 51
55.88613065539755
1001
AcDbBlockRepETag
1070
     1
1071
       17
1005
3FC
  0
ARC
  5
3FD
330
3E8
100
AcDbEntity
  8
0
  6
HIDDEN2
100
AcDbCircle
 10
-6.980467511321926
 20
-0.0000000000000054
 30
0.0
 40
4.36772645630767
100
AcDbArc
 50
311.9186420364473
 51
48.08135796355268
1001
AcDbBlockRepETag
1070
     1
1071
       18
1005
3FD
  0
ENDBLK
  5
3EA
330
3E8
100
AcDbEntity
  8
0
100
AcDbBlockEnd
  0
BLOCK
  5
45F
330
45E
100
AcDbEntity
  8
0
100
AcDbBlockBegin
  2
*U8
 70
     1
 10
0.0
 20
0.0
 30
0.0
  3
*U8
  1

  0
LINE
  5
461
330
45E
100
AcDbEntity
  8
0
100
AcDbLine
 10
0.0000000000000262
 20
5.0
 30
0.0
 11
0.000000000000002
 21
-5.0
 31
0.0
1001
AcDbBlockRepETag
1070
     1
1071
        0
1005
461
  0
LINE
  5
462
330
45E
100
AcDbEntity
  8
0
  6
HIDDEN2
100
AcDbLine
 10
-6.249999999999997
 20
-2.5
 30
0.0
 11
-3.125000000000035
 21
-2.499999999999997
 31
0.0
1001
AcDbBlockRepETag
1070
     1
1071
        1
1005
462
  0
LINE
  5
463
330
45E
100
AcDbEntity
  8
0
  6
HIDDEN2
100
AcDbLine
 10
-6.25
 20
-1.249999999999997
 30
0.0
 11
-3.661177522393084
 21
-1.249999999999997
 31
0.0
1001
AcDbBlockRepETag
1070
     1
1071
        2
1005
463
  0
LINE
  5
464
330
45E
100
AcDbEntity
  8
0
  6
HIDDEN2
100
AcDbLine
 10
-6.250000000000003
 20
1.250000000000001
 30
0.0
 11
-3.661177522393084
 21
1.250000000000001
 31
0.0
1001
AcDbBlockRepETag
1070
     1
1071
        3
1005
464
  0
LINE
  5
465
330
45E
100
AcDbEntity
  8
0
  6
HIDDEN2
100
AcDbLine
 10
-6.250000000000002
 20
2.5
 30
0.0
 11
-3.125000000000035
 21
2.500000000000004
 31
0.0
1001
AcDbBlockRepETag
1070
     1
1071
        4
1005
465
  0
LINE
  5
466
330
45E
100
AcDbEntity
  8
0
100
AcDbLine
 10
36.0
 20
3.0
 30
0.0
 11
36.0
 21
-3.0
 31
0.0
1001
AcDbBlockRepETag
1070
     1
1071
        5
1005
466
  0
LINE
  5
467
330
45E
100
AcDbEntity
  8
0
100
AcDbLine
 10
0.0000000000000107
 20
-3.0
 30
0.0
 11
57.71399999999999
 21
-3.0
 31
0.0
1001
AcDbBlockRepETag
1070
     1
1071
        6
1005
467
  0
LINE
  5
468
330
45E
100
AcDbEntity
  8
0
100
AcDbLine
 10
57.71399999999999
 20
-3.0
 30
0.0
 11
60.0
 21
-1.9
 31
0.0
1001
AcDbBlockRepETag
1070
     1
1071
        7
1005
468
  0
LINE
  5
469
330
45E
100
AcDbEntity
  8
0
100
AcDbLine
 10
60.0
 20
-1.9
 30
0.0
 11
60.0
 21
1.9
 31
0.0
1001
AcDbBlockRepETag
1070
     1
1071
        8
1005
469
  0
LINE
  5
46A
330
45E
100
AcDbEntity
  8
0
100
AcDbLine
 10
60.0
 20
1.9
 30
0.0
 11
57.71399999999999
 21
3.0
 31
0.0
1001
AcDbBlockRepETag
1070
     1
1071
        9
1005
46A
  0
LINE
  5
46B
330
45E
100
AcDbEntity
  8
0
100
AcDbLine
 10
57.71399999999999
 20
3.0
 30
0.0
 11
0.0000000000000346
 21
3.0
 31
0.0
1001
AcDbBlockRepETag
1070
     1
1071
       10
1005
46B
  0
LINE
  5
46C
330
45E
100
AcDbEntity
  8
0
100
AcDbLine
 10
57.71399999999999
 20
3.0
 30
0.0
 11
57.71399999999999
 21
-3.0
 31
0.0
1001
AcDbBlockRepETag
1070
     1
1071
       11
1005
46C
  0
LINE
  5
46D
330
45E
100
AcDbEntity
  8
0
  6
HIDDEN2
100
AcDbLine
 10
36.0
 20
1.9
 30
0.0
 11
60.0
 21
1.9
 31
0.0
1001
AcDbBlockRepETag
1070
     1
1071
       12
1005
46D
  0
LINE
  5
46E
330
45E
100
AcDbEntity
  8
0
  6
HIDDEN2
100
AcDbLine
 10
35.99999999999995
 20
-1.9
 30
0.0
 11
60.0
 21
-1.9
 31
0.0
1001
AcDbBlockRepETag
1070
     1
1071
       13
1005
46E
  0
LWPOLYLINE
  5
46F
330
45E
100
AcDbEntity
  8
0
100
AcDbPolyline
 90
        6
 70
     0
 43
0.0
 10
0.0000000000000262
 20
5.0
 10
-5.625000000000002
 20
4.999999999999992
 42
0.4142135623730951
 10
-6.250000000000002
 20
4.374999999999992
 10
-6.249999999999996
 20
-4.374999999999998
 42
0.4142135623730949
 10
-5.624999999999996
 20
-4.999999999999997
 10
0.000000000000002
 20
-5.0
1001
AcDbBlockRepETag
1070
     1
1071
       14
1005
46F
  0
ARC
  5
470
330
45E
100
AcDbEntity
  8
0
  6
HIDDEN2
100
AcDbCircle
 10
-5.203289366645751
 20
2.651471100531316
 30
0.0
 40
2.083801858576965
100
AcDbArc
 50
317.7354410795077
 51
355.8315059124906
1001
AcDbBlockRepETag
1070
     1
1071
       15
1005
470
  0
ARC
  5
471
330
45E
100
AcDbEntity
  8
0
  6
HIDDEN2
100
AcDbCircle
 10
-4.915233085046504
 20
-2.527911657829204
 30
0.0
 40
1.790450658196935
100
AcDbArc
 50
0.8932304093467465
 51
45.53982259865504
1001
AcDbBlockRepETag
1070
     1
1071
       16
1005
471
  0
ARC
  5
472
330
45E
100
AcDbEntity
  8
0
  6
HIDDEN2
100
AcDbCircle
 10
-4.507932504556714
 20
0.0000000000000022
 30
0.0
 40
1.509799324353713
100
AcDbArc
 50
304.1138693446031
 51
55.88613065539755
1001
AcDbBlockRepETag
1070
     1
1071
       17
1005
472
  0
ARC
  5
473
330
45E
100
AcDbEntity
  8
0
  6
HIDDEN2
100
AcDbCircle
 10
-5.369590393324561
 20
-0.0000000000000042
 30
0.0
 40
3.359789581775131
100
AcDbArc
 50
311.9186420364473
 51
48.08135796355268
1001
AcDbBlockRepETag
1070
     1
1071
       18
1005
473
  0
ENDBLK
  5
460
330
45E
100
AcDbEntity
  8
0
100
AcDbBlockEnd
  0
BLOCK
  5
495
330
493
100
AcDbEntity
  8
0
100
AcDbBlockBegin
  2
*U9
 70
     1
 10
0.0
 20
0.0
 30
0.0
  3
*U9
  1

  0
LINE
  5
496
330
493
100
AcDbEntity
  8
0
100
AcDbLine
 10
0.000000000000034
 20
6.5
 30
0.0
 11
0.0000000000000026
 21
-6.5
 31
0.0
1001
AcDbBlockRepETag
1070
     1
1071
        0
1005
496
  0
LINE
  5
497
330
493
100
AcDbEntity
  8
0
  6
HIDDEN2
100
AcDbLine
 10
-8.124999999999996
 20
-3.25
 30
0.0
 11
-4.062500000000046
 21
-3.249999999999996
 31
0.0
1001
AcDbBlockRepETag
1070
     1
1071
        1
1005
497
  0
LINE
  5
498
330
493
100
AcDbEntity
  8
0
  6
HIDDEN2
100
AcDbLine
 10
-8.125
 20
-1.624999999999996
 30
0.0
 11
-4.759530779111008
 21
-1.624999999999996
 31
0.0
1001
AcDbBlockRepETag
1070
     1
1071
        2
1005
498
  0
LINE
  5
499
330
493
100
AcDbEntity
  8
0
  6
HIDDEN2
100
AcDbLine
 10
-8.125000000000005
 20
1.625000000000001
 30
0.0
 11
-4.759530779111008
 21
1.625000000000001
 31
0.0
1001
AcDbBlockRepETag
1070
     1
1071
        3
1005
499
  0
LINE
  5
49A
330
493
100
AcDbEntity
  8
0
  6
HIDDEN2
100
AcDbLine
 10
-8.125000000000001
 20
3.25
 30
0.0
 11
-4.062500000000046
 21
3.250000000000006
 31
0.0
1001
AcDbBlockRepETag
1070
     1
1071
        4
1005
49A
  0
LINE
  5
49B
330
493
100
AcDbEntity
  8
0
100
AcDbLine
 10
32.0
 20
4.0
 30
0.0
 11
32.0
 21
-4.0
 31
0.0
1001
AcDbBlockRepETag
1070
     1
1071
        5
1005
49B
  0
LINE
  5
49C
330
493
100
AcDbEntity
  8
0
100
AcDbLine
 10
0.0000000000000106
 20
-4.0
 30
0.0
 11
57.71399999999999
 21
-4.0
 31
0.0
1001
AcDbBlockRepETag
1070
     1
1071
        6
1005
49C
  0
LINE
  5
49D
330
493
100
AcDbEntity
  8
0
100
AcDbLine
 10
57.71399999999999
 20
-4.0
 30
0.0
 11
60.0
 21
-2.7
 31
0.0
1001
AcDbBlockRepETag
1070
     1
1071
        7
1005
49D
  0
LINE
  5
49E
330
493
100
AcDbEntity
  8
0
100
AcDbLine
 10
60.0
 20
-2.7
 30
0.0
 11
60.0
 21
2.7
 31
0.0
1001
AcDbBlockRepETag
1070
     1
1071
        8
1005
49E
  0
LINE
  5
49F
330
493
100
AcDbEntity
  8
0
100
AcDbLine
 10
60.0
 20
2.7
 30
0.0
 11
57.71399999999999
 21
4.0
 31
0.0
1001
AcDbBlockRepETag
1070
     1
1071
        9
1005
49F
  0
LINE
  5
4A0
330
493
100
AcDbEntity
  8
0
100
AcDbLine
 10
57.71399999999999
 20
4.0
 30
0.0
 11
0.0000000000000346
 21
4.0
 31
0.0
1001
AcDbBlockRepETag
1070
     1
1071
       10
1005
4A0
  0
LINE
  5
4A1
330
493
100
AcDbEntity
  8
0
100
AcDbLine
 10
57.71399999999999
 20
4.0
 30
0.0
 11
57.71399999999999
 21
-4.0
 31
0.0
1001
AcDbBlockRepETag
1070
     1
1071
       11
1005
4A1
  0
LINE
  5
4A2
330
493
100
AcDbEntity
  8
0
  6
HIDDEN2
100
AcDbLine
 10
32.0
 20
2.7
 30
0.0
 11
60.0
 21
2.7
 31
0.0
1001
AcDbBlockRepETag
1070
     1
1071
       12
1005
4A2
  0
LINE
  5
4A3
330
493
100
AcDbEntity
  8
0
  6
HIDDEN2
100
AcDbLine
 10
31.99999999999995
 20
-2.7
 30
0.0
 11
60.0
 21
-2.7
 31
0.0
1001
AcDbBlockRepETag
1070
     1
1071
       13
1005
4A3
  0
LWPOLYLINE
  5
4A4
330
493
100
AcDbEntity
  8
0
100
AcDbPolyline
 90
        6
 70
     0
 43
0.0
 10
0.000000000000034
 20
6.5
 10
-7.312500000000003
 20
6.49999999999999
 42
0.4142135623730951
 10
-8.125000000000001
 20
5.687499999999988
 10
-8.124999999999994
 20
-5.687499999999997
 42
0.4142135623730949
 10
-7.312499999999993
 20
-6.499999999999996
 10
0.0000000000000026
 20
-6.5
1001
AcDbBlockRepETag
1070
     1
1071
       14
1005
4A4
  0
ARC
  5
4A5
330
493
100
AcDbEntity
  8
0
  6
HIDDEN2
100
AcDbCircle
 10
-6.764276176639477
 20
3.446912430690711
 30
0.0
 40
2.708942416150056
100
AcDbArc
 50
317.7354410795077
 51
355.8315059124906
1001
AcDbBlockRepETag
1070
     1
1071
       15
1005
4A5
  0
ARC
  5
4A6
330
493
100
AcDbEntity
  8
0
  6
HIDDEN2
100
AcDbCircle
 10
-6.389803010560456
 20
-3.286285155177964
 30
0.0
 40
2.327585855656015
100
AcDbArc
 50
0.8932304093467465
 51
45.53982259865504
1001
AcDbBlockRepETag
1070
     1
1071
       16
1005
4A6
  0
ARC
  5
4A7
330
493
100
AcDbEntity
  8
0
  6
HIDDEN2
100
AcDbCircle
 10
-5.860312255923728
 20
0.0000000000000029
 30
0.0
 40
1.962739121659828
100
AcDbArc
 50
304.1138693446031
 51
55.88613065539755
1001
AcDbBlockRepETag
1070
     1
1071
       17
1005
4A7
  0
ARC
  5
4A8
330
493
100
AcDbEntity
  8
0
  6
HIDDEN2
100
AcDbCircle
 10
-6.980467511321926
 20
-0.0000000000000054
 30
0.0
 40
4.36772645630767
100
AcDbArc
 50
311.9186420364473
 51
48.08135796355268
1001
AcDbBlockRepETag
1070
     1
1071
       18
1005
4A8
  0
ENDBLK
  5
4A9
330
493
100
AcDbEntity
  8
0
100
AcDbBlockEnd
  0
BLOCK
  5
4D1
330
4D0
100
AcDbEntity
  8
0
100
AcDbBlockBegin
  2
*U10
 70
     1
 10
0.0
 20
0.0
 30
0.0
  3
*U10
  1

  0
LINE
  5
4D3
330
4D0
100
AcDbEntity
  8
0
100
AcDbLine
 10
0.000000000000034
 20
6.5
 30
0.0
 11
0.0000000000000026
 21
-6.5
 31
0.0
1001
AcDbBlockRepETag
1070
     1
1071
        0
1005
4D3
  0
LINE
  5
4D4
330
4D0
100
AcDbEntity
  8
0
  6
HIDDEN2
100
AcDbLine
 10
-8.124999999999996
 20
-3.25
 30
0.0
 11
-4.062500000000046
 21
-3.249999999999996
 31
0.0
1001
AcDbBlockRepETag
1070
     1
1071
        1
1005
4D4
  0
LINE
  5
4D5
330
4D0
100
AcDbEntity
  8
0
  6
HIDDEN2
100
AcDbLine
 10
-8.125
 20
-1.624999999999996
 30
0.0
 11
-4.759530779111008
 21
-1.624999999999996
 31
0.0
1001
AcDbBlockRepETag
1070
     1
1071
        2
1005
4D5
  0
LINE
  5
4D6
330
4D0
100
AcDbEntity
  8
0
  6
HIDDEN2
100
AcDbLine
 10
-8.125000000000005
 20
1.625000000000001
 30
0.0
 11
-4.759530779111008
 21
1.625000000000001
 31
0.0
1001
AcDbBlockRepETag
1070
     1
1071
        3
1005
4D6
  0
LINE
  5
4D7
330
4D0
100
AcDbEntity
  8
0
  6
HIDDEN2
100
AcDbLine
 10
-8.125000000000001
 20
3.25
 30
0.0
 11
-4.062500000000046
 21
3.250000000000006
 31
0.0
1001
AcDbBlockRepETag
1070
     1
1071
        4
1005
4D7
  0
LINE
  5
4D8
330
4D0
100
AcDbEntity
  8
0
100
AcDbLine
 10
32.0
 20
4.0
 30
0.0
 11
32.0
 21
-4.0
 31
0.0
1001
AcDbBlockRepETag
1070
     1
1071
        5
1005
4D8
  0
LINE
  5
4D9
330
4D0
100
AcDbEntity
  8
0
100
AcDbLine
 10
0.0000000000000106
 20
-4.0
 30
0.0
 11
57.71399999999999
 21
-4.0
 31
0.0
1001
AcDbBlockRepETag
1070
     1
1071
        6
1005
4D9
  0
LINE
  5
4DA
330
4D0
100
AcDbEntity
  8
0
100
AcDbLine
 10
57.71399999999999
 20
-4.0
 30
0.0
 11
60.0
 21
-2.7
 31
0.0
1001
AcDbBlockRepETag
1070
     1
1071
        7
1005
4DA
  0
LINE
  5
4DB
330
4D0
100
AcDbEntity
  8
0
100
AcDbLine
 10
60.0
 20
-2.7
 30
0.0
 11
60.0
 21
2.7
 31
0.0
1001
AcDbBlockRepETag
1070
     1
1071
        8
1005
4DB
  0
LINE
  5
4DC
330
4D0
100
AcDbEntity
  8
0
100
AcDbLine
 10
60.0
 20
2.7
 30
0.0
 11
57.71399999999999
 21
4.0
 31
0.0
1001
AcDbBlockRepETag
1070
     1
1071
        9
1005
4DC
  0
LINE
  5
4DD
330
4D0
100
AcDbEntity
  8
0
100
AcDbLine
 10
57.71399999999999
 20
4.0
 30
0.0
 11
0.0000000000000346
 21
4.0
 31
0.0
1001
AcDbBlockRepETag
1070
     1
1071
       10
1005
4DD
  0
LINE
  5
4DE
330
4D0
100
AcDbEntity
  8
0
100
AcDbLine
 10
57.71399999999999
 20
4.0
 30
0.0
 11
57.71399999999999
 21
-4.0
 31
0.0
1001
AcDbBlockRepETag
1070
     1
1071
       11
1005
4DE
  0
LINE
  5
4DF
330
4D0
100
AcDbEntity
  8
0
  6
HIDDEN2
100
AcDbLine
 10
32.0
 20
2.7
 30
0.0
 11
60.0
 21
2.7
 31
0.0
1001
AcDbBlockRepETag
1070
     1
1071
       12
1005
4DF
  0
LINE
  5
4E0
330
4D0
100
AcDbEntity
  8
0
  6
HIDDEN2
100
AcDbLine
 10
31.99999999999995
 20
-2.7
 30
0.0
 11
60.0
 21
-2.7
 31
0.0
1001
AcDbBlockRepETag
1070
     1
1071
       13
1005
4E0
  0
LWPOLYLINE
  5
4E1
330
4D0
100
AcDbEntity
  8
0
100
AcDbPolyline
 90
        6
 70
     0
 43
0.0
 10
0.000000000000034
 20
6.5
 10
-7.312500000000003
 20
6.49999999999999
 42
0.4142135623730951
 10
-8.125000000000001
 20
5.687499999999988
 10
-8.124999999999994
 20
-5.687499999999997
 42
0.4142135623730949
 10
-7.312499999999993
 20
-6.499999999999996
 10
0.0000000000000026
 20
-6.5
1001
AcDbBlockRepETag
1070
     1
1071
       14
1005
4E1
  0
ARC
  5
4E2
330
4D0
100
AcDbEntity
  8
0
  6
HIDDEN2
100
AcDbCircle
 10
-6.764276176639477
 20
3.446912430690711
 30
0.0
 40
2.708942416150056
100
AcDbArc
 50
317.7354410795077
 51
355.8315059124906
1001
AcDbBlockRepETag
1070
     1
1071
       15
1005
4E2
  0
ARC
  5
4E3
330
4D0
100
AcDbEntity
  8
0
  6
HIDDEN2
100
AcDbCircle
 10
-6.389803010560456
 20
-3.286285155177964
 30
0.0
 40
2.327585855656015
100
AcDbArc
 50
0.8932304093467465
 51
45.53982259865504
1001
AcDbBlockRepETag
1070
     1
1071
       16
1005
4E3
  0
ARC
  5
4E4
330
4D0
100
AcDbEntity
  8
0
  6
HIDDEN2
100
AcDbCircle
 10
-5.860312255923728
 20
0.0000000000000029
 30
0.0
 40
1.962739121659828
100
AcDbArc
 50
304.1138693446031
 51
55.88613065539755
1001
AcDbBlockRepETag
1070
     1
1071
       17
1005
4E4
  0
ARC
  5
4E5
330
4D0
100
AcDbEntity
  8
0
  6
HIDDEN2
100
AcDbCircle
 10
-6.980467511321926
 20
-0.0000000000000054
 30
0.0
 40
4.36772645630767
100
AcDbArc
 50
311.9186420364473
 51
48.08135796355268
1001
AcDbBlockRepETag
1070
     1
1071
       18
1005
4E5
  0
ENDBLK
  5
4D2
330
4D0
100
AcDbEntity
  8
0
100
AcDbBlockEnd
  0
BLOCK
  5
549
330
547
100
AcDbEntity
  8
0
100
AcDbBlockBegin
  2
*U11
 70
     1
 10
0.0
 20
0.0
 30
0.0
  3
*U11
  1

  0
LINE
  5
54A
330
547
100
AcDbEntity
  8
0
100
AcDbLine
 10
0.000000000000034
 20
6.5
 30
0.0
 11
0.0000000000000026
 21
-6.5
 31
0.0
1001
AcDbBlockRepETag
1070
     1
1071
        0
1005
54A
  0
LINE
  5
54B
330
547
100
AcDbEntity
  8
0
  6
HIDDEN2
100
AcDbLine
 10
-8.124999999999996
 20
-3.25
 30
0.0
 11
-4.062500000000046
 21
-3.249999999999996
 31
0.0
1001
AcDbBlockRepETag
1070
     1
1071
        1
1005
54B
  0
LINE
  5
54C
330
547
100
AcDbEntity
  8
0
  6
HIDDEN2
100
AcDbLine
 10
-8.125
 20
-1.624999999999996
 30
0.0
 11
-4.759530779111008
 21
-1.624999999999996
 31
0.0
1001
AcDbBlockRepETag
1070
     1
1071
        2
1005
54C
  0
LINE
  5
54D
330
547
100
AcDbEntity
  8
0
  6
HIDDEN2
100
AcDbLine
 10
-8.125000000000005
 20
1.625000000000001
 30
0.0
 11
-4.759530779111008
 21
1.625000000000001
 31
0.0
1001
AcDbBlockRepETag
1070
     1
1071
        3
1005
54D
  0
LINE
  5
54E
330
547
100
AcDbEntity
  8
0
  6
HIDDEN2
100
AcDbLine
 10
-8.125000000000001
 20
3.25
 30
0.0
 11
-4.062500000000046
 21
3.250000000000006
 31
0.0
1001
AcDbBlockRepETag
1070
     1
1071
        4
1005
54E
  0
LINE
  5
54F
330
547
100
AcDbEntity
  8
0
100
AcDbLine
 10
32.0
 20
4.0
 30
0.0
 11
32.0
 21
-4.0
 31
0.0
1001
AcDbBlockRepETag
1070
     1
1071
        5
1005
54F
  0
LINE
  5
550
330
547
100
AcDbEntity
  8
0
100
AcDbLine
 10
0.0000000000000106
 20
-4.0
 30
0.0
 11
57.71399999999999
 21
-4.0
 31
0.0
1001
AcDbBlockRepETag
1070
     1
1071
        6
1005
550
  0
LINE
  5
551
330
547
100
AcDbEntity
  8
0
100
AcDbLine
 10
57.71399999999999
 20
-4.0
 30
0.0
 11
60.0
 21
-2.7
 31
0.0
1001
AcDbBlockRepETag
1070
     1
1071
        7
1005
551
  0
LINE
  5
552
330
547
100
AcDbEntity
  8
0
100
AcDbLine
 10
60.0
 20
-2.7
 30
0.0
 11
60.0
 21
2.7
 31
0.0
1001
AcDbBlockRepETag
1070
     1
1071
        8
1005
552
  0
LINE
  5
553
330
547
100
AcDbEntity
  8
0
100
AcDbLine
 10
60.0
 20
2.7
 30
0.0
 11
57.71399999999999
 21
4.0
 31
0.0
1001
AcDbBlockRepETag
1070
     1
1071
        9
1005
553
  0
LINE
  5
554
330
547
100
AcDbEntity
  8
0
100
AcDbLine
 10
57.71399999999999
 20
4.0
 30
0.0
 11
0.0000000000000346
 21
4.0
 31
0.0
1001
AcDbBlockRepETag
1070
     1
1071
       10
1005
554
  0
LINE
  5
555
330
547
100
AcDbEntity
  8
0
100
AcDbLine
 10
57.71399999999999
 20
4.0
 30
0.0
 11
57.71399999999999
 21
-4.0
 31
0.0
1001
AcDbBlockRepETag
1070
     1
1071
       11
1005
555
  0
LINE
  5
556
330
547
100
AcDbEntity
  8
0
  6
HIDDEN2
100
AcDbLine
 10
32.0
 20
2.7
 30
0.0
 11
60.0
 21
2.7
 31
0.0
1001
AcDbBlockRepETag
1070
     1
1071
       12
1005
556
  0
LINE
  5
557
330
547
100
AcDbEntity
  8
0
  6
HIDDEN2
100
AcDbLine
 10
31.99999999999995
 20
-2.7
 30
0.0
 11
60.0
 21
-2.7
 31
0.0
1001
AcDbBlockRepETag
1070
     1
1071
       13
1005
557
  0
LWPOLYLINE
  5
558
330
547
100
AcDbEntity
  8
0
100
AcDbPolyline
 90
        6
 70
     0
 43
0.0
 10
0.000000000000034
 20
6.5
 10
-7.312500000000003
 20
6.49999999999999
 42
0.4142135623730951
 10
-8.125000000000001
 20
5.687499999999988
 10
-8.124999999999994
 20
-5.687499999999997
 42
0.4142135623730949
 10
-7.312499999999993
 20
-6.499999999999996
 10
0.0000000000000026
 20
-6.5
1001
AcDbBlockRepETag
1070
     1
1071
       14
1005
558
  0
ARC
  5
559
330
547
100
AcDbEntity
  8
0
  6
HIDDEN2
100
AcDbCircle
 10
-6.764276176639477
 20
3.446912430690711
 30
0.0
 40
2.708942416150056
100
AcDbArc
 50
317.7354410795077
 51
355.8315059124906
1001
AcDbBlockRepETag
1070
     1
1071
       15
1005
559
  0
ARC
  5
55A
330
547
100
AcDbEntity
  8
0
  6
HIDDEN2
100
AcDbCircle
 10
-6.389803010560456
 20
-3.286285155177964
 30
0.0
 40
2.327585855656015
100
AcDbArc
 50
0.8932304093467465
 51
45.53982259865504
1001
AcDbBlockRepETag
1070
     1
1071
       16
1005
55A
  0
ARC
  5
55B
330
547
100
AcDbEntity
  8
0
  6
HIDDEN2
100
AcDbCircle
 10
-5.860312255923728
 20
0.0000000000000029
 30
0.0
 40
1.962739121659828
100
AcDbArc
 50
304.1138693446031
 51
55.88613065539755
1001
AcDbBlockRepETag
1070
     1
1071
       17
1005
55B
  0
ARC
  5
55C
330
547
100
AcDbEntity
  8
0
  6
HIDDEN2
100
AcDbCircle
 10
-6.980467511321926
 20
-0.0000000000000054
 30
0.0
 40
4.36772645630767
100
AcDbArc
 50
311.9186420364473
 51
48.08135796355268
1001
AcDbBlockRepETag
1070
     1
1071
       18
1005
55C
  0
ENDBLK
  5
55D
330
547
100
AcDbEntity
  8
0
100
AcDbBlockEnd
  0
BLOCK
  5
585
330
584
100
AcDbEntity
  8
0
100
AcDbBlockBegin
  2
*U12
 70
     1
 10
0.0
 20
0.0
 30
0.0
  3
*U12
  1

  0
LINE
  5
587
330
584
100
AcDbEntity
  8
0
100
AcDbLine
 10
0.000000000000034
 20
6.5
 30
0.0
 11
0.0000000000000026
 21
-6.5
 31
0.0
1001
AcDbBlockRepETag
1070
     1
1071
        0
1005
587
  0
LINE
  5
588
330
584
100
AcDbEntity
  8
0
  6
HIDDEN2
100
AcDbLine
 10
-8.124999999999996
 20
-3.25
 30
0.0
 11
-4.062500000000046
 21
-3.249999999999996
 31
0.0
1001
AcDbBlockRepETag
1070
     1
1071
        1
1005
588
  0
LINE
  5
589
330
584
100
AcDbEntity
  8
0
  6
HIDDEN2
100
AcDbLine
 10
-8.125
 20
-1.624999999999996
 30
0.0
 11
-4.759530779111008
 21
-1.624999999999996
 31
0.0
1001
AcDbBlockRepETag
1070
     1
1071
        2
1005
589
  0
LINE
  5
58A
330
584
100
AcDbEntity
  8
0
  6
HIDDEN2
100
AcDbLine
 10
-8.125000000000005
 20
1.625000000000001
 30
0.0
 11
-4.759530779111008
 21
1.625000000000001
 31
0.0
1001
AcDbBlockRepETag
1070
     1
1071
        3
1005
58A
  0
LINE
  5
58B
330
584
100
AcDbEntity
  8
0
  6
HIDDEN2
100
AcDbLine
 10
-8.125000000000001
 20
3.25
 30
0.0
 11
-4.062500000000046
 21
3.250000000000006
 31
0.0
1001
AcDbBlockRepETag
1070
     1
1071
        4
1005
58B
  0
LINE
  5
58C
330
584
100
AcDbEntity
  8
0
100
AcDbLine
 10
32.0
 20
4.0
 30
0.0
 11
32.0
 21
-4.0
 31
0.0
1001
AcDbBlockRepETag
1070
     1
1071
        5
1005
58C
  0
LINE
  5
58D
330
584
100
AcDbEntity
  8
0
100
AcDbLine
 10
0.0000000000000106
 20
-4.0
 30
0.0
 11
57.71399999999999
 21
-4.0
 31
0.0
1001
AcDbBlockRepETag
1070
     1
1071
        6
1005
58D
  0
LINE
  5
58E
330
584
100
AcDbEntity
  8
0
100
AcDbLine
 10
57.71399999999999
 20
-4.0
 30
0.0
 11
60.0
 21
-2.7
 31
0.0
1001
AcDbBlockRepETag
1070
     1
1071
        7
1005
58E
  0
LINE
  5
58F
330
584
100
AcDbEntity
  8
0
100
AcDbLine
 10
60.0
 20
-2.7
 30
0.0
 11
60.0
 21
2.7
 31
0.0
1001
AcDbBlockRepETag
1070
     1
1071
        8
1005
58F
  0
LINE
  5
590
330
584
100
AcDbEntity
  8
0
100
AcDbLine
 10
60.0
 20
2.7
 30
0.0
 11
57.71399999999999
 21
4.0
 31
0.0
1001
AcDbBlockRepETag
1070
     1
1071
        9
1005
590
  0
LINE
  5
591
330
584
100
AcDbEntity
  8
0
100
AcDbLine
 10
57.71399999999999
 20
4.0
 30
0.0
 11
0.0000000000000346
 21
4.0
 31
0.0
1001
AcDbBlockRepETag
1070
     1
1071
       10
1005
591
  0
LINE
  5
592
330
584
100
AcDbEntity
  8
0
100
AcDbLine
 10
57.71399999999999
 20
4.0
 30
0.0
 11
57.71399999999999
 21
-4.0
 31
0.0
1001
AcDbBlockRepETag
1070
     1
1071
       11
1005
592
  0
LINE
  5
593
330
584
100
AcDbEntity
  8
0
  6
HIDDEN2
100
AcDbLine
 10
32.0
 20
2.7
 30
0.0
 11
60.0
 21
2.7
 31
0.0
1001
AcDbBlockRepETag
1070
     1
1071
       12
1005
593
  0
LINE
  5
594
330
584
100
AcDbEntity
  8
0
  6
HIDDEN2
100
AcDbLine
 10
31.99999999999995
 20
-2.7
 30
0.0
 11
60.0
 21
-2.7
 31
0.0
1001
AcDbBlockRepETag
1070
     1
1071
       13
1005
594
  0
LWPOLYLINE
  5
595
330
584
100
AcDbEntity
  8
0
100
AcDbPolyline
 90
        6
 70
     0
 43
0.0
 10
0.000000000000034
 20
6.5
 10
-7.312500000000003
 20
6.49999999999999
 42
0.4142135623730951
 10
-8.125000000000001
 20
5.687499999999988
 10
-8.124999999999994
 20
-5.687499999999997
 42
0.4142135623730949
 10
-7.312499999999993
 20
-6.499999999999996
 10
0.0000000000000026
 20
-6.5
1001
AcDbBlockRepETag
1070
     1
1071
       14
1005
595
  0
ARC
  5
596
330
584
100
AcDbEntity
  8
0
  6
HIDDEN2
100
AcDbCircle
 10
-6.764276176639477
 20
3.446912430690711
 30
0.0
 40
2.708942416150056
100
AcDbArc
 50
317.7354410795077
 51
355.8315059124906
1001
AcDbBlockRepETag
1070
     1
1071
       15
1005
596
  0
ARC
  5
597
330
584
100
AcDbEntity
  8
0
  6
HIDDEN2
100
AcDbCircle
 10
-6.389803010560456
 20
-3.286285155177964
 30
0.0
 40
2.327585855656015
100
AcDbArc
 50
0.8932304093467465
 51
45.53982259865504
1001
AcDbBlockRepETag
1070
     1
1071
       16
1005
597
  0
ARC
  5
598
330
584
100
AcDbEntity
  8
0
  6
HIDDEN2
100
AcDbCircle
 10
-5.860312255923728
 20
0.0000000000000029
 30
0.0
 40
1.962739121659828
100
AcDbArc
 50
304.1138693446031
 51
55.88613065539755
1001
AcDbBlockRepETag
1070
     1
1071
       17
1005
598
  0
ARC
  5
599
330
584
100
AcDbEntity
  8
0
  6
HIDDEN2
100
AcDbCircle
 10
-6.980467511321926
 20
-0.0000000000000054
 30
0.0
 40
4.36772645630767
100
AcDbArc
 50
311.9186420364473
 51
48.08135796355268
1001
AcDbBlockRepETag
1070
     1
1071
       18
1005
599
  0
ENDBLK
  5
586
330
584
100
AcDbEntity
  8
0
100
AcDbBlockEnd
  0
ENDSEC
  0
SECTION
  2
ENTITIES
  0
CIRCLE
  5
84
330
1F
100
AcDbEntity
  8
0
100
AcDbCircle
 10
180.0
 20
172.5
 30
-0.0000000000000622
 40
3.399999999999999
  0
CIRCLE
  5
85
330
1F
100
AcDbEntity
  8
0
100
AcDbCircle
 10
180.0
 20
100.0
 30
-0.0000000000000622
 40
3.399999999999999
  0
CIRCLE
  5
92
330
1F
100
AcDbEntity
  8
0
100
AcDbCircle
 10
150.0
 20
130.0
 30
13.49999999999994
 40
4.5
  0
CIRCLE
  5
93
330
1F
100
AcDbEntity
  8
0
100
AcDbCircle
 10
150.0
 20
202.5
 30
13.49999999999994
 40
4.5
  0
ARC
  5
94
330
1F
100
AcDbEntity
  8
0
100
AcDbCircle
 10
150.0
 20
202.5
 30
13.49999999999994
 40
10.0
100
AcDbArc
 50
37.64829094093452
 51
180.0
  0
ARC
  5
95
330
1F
100
AcDbEntity
  8
0
100
AcDbCircle
 10
150.0000000000001
 20
130.0
 30
13.49999999999994
 40
10.00000000000013
100
AcDbArc
 50
180.0000000000003
 51
234.4257055387763
  0
ARC
  5
96
330
1F
100
AcDbEntity
  8
0
100
AcDbCircle
 10
180.0
 20
100.0
 30
-0.0000000000000622
 40
10.0
100
AcDbArc
 50
221.8004453944462
 51
91.76247310114405
  0
ARC
  5
A5
330
1F
100
AcDbEntity
  8
0
100
AcDbCircle
 10
179.981288794379
 20
172.4961266776861
 30
-0.0000000000000622
 40
10.01576342919264
100
AcDbArc
 50
272.5892259533566
 51
46.07908320038077
  0
LINE
  5
A7
330
1F
100
AcDbEntity
  8
0
100
AcDbLine
 10
164.0
 20
101.9307934523709
 30
13.50000000000001
 11
164.0
 21
202.3494913690212
 31
13.50000000000001
  0
LINE
  5
A9
330
1F
100
AcDbEntity
  8
0
100
AcDbLine
 10
164.0
 20
202.3494913690212
 30
30.00000000000002
 11
157.917751097463
 21
208.6081271727612
 31
30.00000000000001
  0
LINE
  5
B2
330
1F
100
AcDbEntity
  8
0
100
AcDbLine
 10
172.5452918169616
 20
93.33461734738786
 30
13.50000000000001
 11
164.0
 21
101.9307934523709
 31
13.50000000000001
  0
LINE
  5
B4
330
1F
100
AcDbEntity
  8
0
100
AcDbLine
 10
186.9288716459595
 20
179.7104602983316
 30
13.50000000000002
 11
164.0
 21
202.3494913690212
 31
13.50000000000001
  0
LINE
  5
B6
330
1F
100
AcDbEntity
  8
0
100
AcDbLine
 10
161.0
 20
104.9486574255779
 30
0.0000000000000093
 11
161.0
 21
134.6717017276611
 31
0.0000000000000093
  0
LINE
  5
BB
330
1F
100
AcDbEntity
  8
0
100
AcDbLine
 10
186.9288716459595
 20
179.7104602983316
 30
0.0000000000000208
 11
161.0
 21
205.4364921991563
 31
0.0000000000000093
  0
LINE
  5
BC
330
1F
100
AcDbEntity
  8
0
100
AcDbLine
 10
157.917751097463
 20
208.6081271727612
 30
13.5
 11
161.0
 21
205.4364921991563
 31
13.50000000000001
  0
LINE
  5
BD
330
1F
100
AcDbEntity
  8
0
100
AcDbLine
 10
161.0
 20
104.9486574255779
 30
0.0000000000000093
 11
172.5452918169616
 21
93.33461734738786
 31
0.0000000000000145
  0
LINE
  5
BE
330
1F
100
AcDbEntity
  8
0
100
AcDbLine
 10
144.1824188305426
 20
121.8663815348409
 30
13.5
 11
161.0
 21
104.9486574255779
 31
13.50000000000001
  0
ARC
  5
107
330
1F
100
AcDbEntity
  8
0
100
AcDbCircle
 10
180.0
 20
120.0
 30
-0.0000000000000622
 40
10.0
100
AcDbArc
 50
177.920423501241
 51
268.2391926455669
  0
ARC
  5
108
330
1F
100
AcDbEntity
  8
0
100
AcDbCircle
 10
180.0
 20
152.5
 30
-0.0000000000000622
 40
10.0
100
AcDbArc
 50
87.51400248146616
 51
180.0
  0
LINE
  5
10B
330
1F
100
AcDbEntity
  8
0
100
AcDbLine
 10
170.0
 20
152.5
 30
0.0000000000000133
 11
170.0065860779088
 21
120.3628748844361
 31
0.0000000000000133
  0
LINE
  5
10F
330
1F
100
AcDbEntity
  8
0
100
AcDbLine
 10
140.0
 20
202.5
 30
13.5
 11
140.0
 21
130.0
 31
13.5
  0
LINE
  5
110
330
1F
100
AcDbEntity
  8
0
100
AcDbLine
 10
144.0774124486759
 20
121.9425216911927
 30
30.0
 11
164.0
 21
101.9307934523709
 31
30.00000000000002
  0
ARC
  5
115
330
1F
100
AcDbEntity
  8
0
100
AcDbCircle
 10
150.9963916373475
 20
134.9912886419463
 30
-0.0000000000000622
 40
10.00871200850109
100
AcDbArc
 50
358.1701846974728
 51
89.97934360033102
  0
ARC
  5
117
330
1F
100
AcDbEntity
  8
0
100
AcDbCircle
 10
151.0
 20
196.5
 30
8.5
 40
10.0
100
AcDbArc
 50
270.0
 51
0.000000000000007
  0
LINE
  5
119
330
1F
100
AcDbEntity
  8
0
100
AcDbLine
 10
151.0
 20
170.5
 30
0.0000000000000049
 11
151.0
 21
145.0
 31
0.0000000000000049
  0
LINE
  5
11A
330
1F
100
AcDbEntity
  8
0
100
AcDbLine
 10
161.0
 20
205.4364921991563
 30
0.0000000000000093
 11
161.0
 21
196.5
 31
0.0000000000000093
  0
CIRCLE
  5
125
330
1F
100
AcDbEntity
  8
0
100
AcDbCircle
 10
150.0
 20
202.5
 30
21.99999999999994
 40
7.5
  0
CIRCLE
  5
126
330
1F
100
AcDbEntity
  8
0
100
AcDbCircle
 10
150.0
 20
130.0
 30
21.99999999999994
 40
7.5
  0
ARC
  5
186
330
1F
100
AcDbEntity
  8
0
100
AcDbCircle
 10
152.0
 20
147.0
 30
22.0
 40
5.0
100
AcDbArc
 50
180.0
 51
0.0
  0
ARC
  5
187
330
1F
100
AcDbEntity
  8
0
100
AcDbCircle
 10
152.0
 20
185.5
 30
22.0
 40
5.0
100
AcDbArc
 50
0.0
 51
180.0
  0
LINE
  5
188
330
1F
100
AcDbEntity
  8
0
100
AcDbLine
 10
147.0
 20
147.0
 30
22.0
 11
147.0
 21
185.5
 31
22.0
  0
LINE
  5
189
330
1F
100
AcDbEntity
  8
0
100
AcDbLine
 10
157.0
 20
147.0
 30
22.0
 11
157.0
 21
185.5
 31
22.0
  0
CIRCLE
  5
18E
330
1F
100
AcDbEntity
  8
0
100
AcDbCircle
 10
180.0
 20
172.5
 30
13.5
 40
3.399999999999999
  0
ARC
  5
18F
330
1F
100
AcDbEntity
  8
0
100
AcDbCircle
 10
179.981288794379
 20
172.4961266776861
 30
13.49999999999994
 40
10.01576342919264
100
AcDbArc
 50
272.5892259533566
 51
46.07908320038077
  0
ARC
  5
190
330
1F
100
AcDbEntity
  8
0
100
AcDbCircle
 10
180.0
 20
152.5
 30
13.49999999999994
 40
10.0
100
AcDbArc
 50
87.51400248146616
 51
180.0
  0
CIRCLE
  5
191
330
1F
100
AcDbEntity
  8
0
100
AcDbCircle
 10
180.0
 20
100.0
 30
13.49999999999994
 40
3.399999999999999
  0
ARC
  5
192
330
1F
100
AcDbEntity
  8
0
100
AcDbCircle
 10
180.0
 20
100.0
 30
13.49999999999994
 40
10.0
100
AcDbArc
 50
221.8004453944462
 51
91.76247310114405
  0
ARC
  5
193
330
1F
100
AcDbEntity
  8
0
100
AcDbCircle
 10
151.0
 20
196.5
 30
13.49999999999994
 40
10.0
100
AcDbArc
 50
270.0
 51
0.000000000000007
  0
ARC
  5
194
330
1F
100
AcDbEntity
  8
0
100
AcDbCircle
 10
150.9963916373475
 20
134.9912886419463
 30
13.49999999999994
 40
10.00871200850109
100
AcDbArc
 50
358.1701846974728
 51
89.97934360033102
  0
ARC
  5
195
330
1F
100
AcDbEntity
  8
0
100
AcDbCircle
 10
180.0
 20
120.0
 30
13.49999999999994
 40
10.0
100
AcDbArc
 50
177.920423501241
 51
268.2391926455669
  0
LINE
  5
196
330
1F
100
AcDbEntity
  8
0
100
AcDbLine
 10
170.0
 20
152.5
 30
13.50000000000001
 11
170.0065860779088
 21
120.3628748844361
 31
13.50000000000001
  0
LINE
  5
197
330
1F
100
AcDbEntity
  8
0
100
AcDbLine
 10
161.0
 20
205.4364921991563
 30
13.50000000000001
 11
161.0
 21
196.5
 31
13.50000000000001
  0
LINE
  5
198
330
1F
100
AcDbEntity
  8
0
100
AcDbLine
 10
151.0
 20
186.5
 30
13.5
 11
151.0
 21
145.0
 31
13.5
  0
LINE
  5
199
330
1F
100
AcDbEntity
  8
0
100
AcDbLine
 10
161.0
 20
104.9486574255779
 30
13.50000000000001
 11
161.0
 21
134.6717017276611
 31
13.50000000000001
  0
ARC
  5
19A
330
1F
100
AcDbEntity
  8
0
100
AcDbCircle
 10
150.0
 20
202.5
 30
29.99999999999995
 40
10.0
100
AcDbArc
 50
37.64829094093452
 51
180.0
  0
LINE
  5
19B
330
1F
100
AcDbEntity
  8
0
100
AcDbLine
 10
140.0
 20
202.5
 30
30.0
 11
140.0
 21
130.0
 31
30.0
  0
LINE
  5
19C
330
1F
100
AcDbEntity
  8
0
100
AcDbLine
 10
164.0
 20
101.9307934523709
 30
30.00000000000001
 11
164.0
 21
202.3494913690212
 31
30.00000000000001
  0
ARC
  5
19D
330
1F
100
AcDbEntity
  8
0
100
AcDbCircle
 10
152.0
 20
185.5
 30
30.0
 40
5.0
100
AcDbArc
 50
0.0
 51
180.0
  0
ARC
  5
19E
330
1F
100
AcDbEntity
  8
0
100
AcDbCircle
 10
152.0
 20
147.0
 30
30.0
 40
5.0
100
AcDbArc
 50
180.0
 51
0.0
  0
CIRCLE
  5
19F
330
1F
100
AcDbEntity
  8
0
100
AcDbCircle
 10
150.0
 20
130.0
 30
29.99999999999995
 40
7.5
  0
CIRCLE
  5
1A0
330
1F
100
AcDbEntity
  8
0
100
AcDbCircle
 10
150.0
 20
202.5
 30
29.99999999999995
 40
7.5
  0
CIRCLE
  5
1A1
330
1F
100
AcDbEntity
  8
0
100
AcDbCircle
 10
150.0
 20
202.5
 30
21.99999999999993
 40
4.5
  0
CIRCLE
  5
1A2
330
1F
100
AcDbEntity
  8
0
100
AcDbCircle
 10
150.0
 20
130.0
 30
21.99999999999993
 40
4.5
  0
LINE
  5
1A3
330
1F
100
AcDbEntity
  8
0
100
AcDbLine
 10
147.0
 20
147.0
 30
30.0
 11
147.0
 21
185.5
 31
30.0
  0
LINE
  5
1A4
330
1F
100
AcDbEntity
  8
0
100
AcDbLine
 10
157.0
 20
147.0
 30
30.0
 11
157.0
 21
185.5
 31
30.0
  0
ARC
  5
1A5
330
1F
100
AcDbEntity
  8
0
100
AcDbCircle
 10
150.0000000000001
 20
130.0
 30
29.99999999999995
 40
10.00000000000013
100
AcDbArc
 50
180.0000000000003
 51
234.4257055387763
  0
LINE
  5
1A8
330
1F
100
AcDbEntity
  8
0
100
AcDbLine
 10
164.0
 20
101.9307934523709
 30
13.50000000000001
 11
164.0
 21
101.9307934523709
 31
30.00000000000002
  0
LINE
  5
1A9
330
1F
100
AcDbEntity
  8
0
100
AcDbLine
 10
161.0
 20
104.9486574255779
 30
0.0000000000000093
 11
161.0
 21
104.9486574255779
 31
13.50000000000001
  0
LINE
  5
1AA
330
1F
100
AcDbEntity
  8
0
100
AcDbLine
 10
164.0
 20
202.3494913690212
 30
13.50000000000001
 11
164.0
 21
202.3494913690212
 31
30.00000000000002
  0
LINE
  5
1AB
330
1F
100
AcDbEntity
  8
0
100
AcDbLine
 10
161.0
 20
205.4364921991563
 30
0.0000000000000093
 11
161.0
 21
205.4364921991563
 31
13.50000000000001
  0
LINE
  5
1AD
330
1F
100
AcDbEntity
  8
0
100
AcDbLine
 10
151.0
 20
145.0
 30
13.5
 11
151.0
 21
145.0
 31
0.0000000000000049
  0
LINE
  5
1AE
330
1F
100
AcDbEntity
  8
0
100
AcDbLine
 10
170.0065860779088
 20
120.3628748844367
 30
13.49999999999994
 11
170.0065860779088
 21
120.3628748844361
 31
-0.0000000000000622
  0
LINE
  5
1AF
330
1F
100
AcDbEntity
  8
0
100
AcDbLine
 10
170.0
 20
152.5
 30
13.49999999999994
 11
170.0
 21
152.5
 31
0.0000000000000133
  0
LINE
  5
1B0
330
1F
100
AcDbEntity
  8
0
100
AcDbLine
 10
179.6924389236836
 20
109.9952691901886
 30
-0.0000000000000622
 11
179.6927295139219
 21
110.0047218723847
 31
13.49999999999994
  0
LINE
  5
1B2
330
1F
100
AcDbEntity
  8
0
100
AcDbLine
 10
172.5452918169616
 20
93.33461734738786
 30
13.49999999999994
 11
172.5452918169616
 21
93.33461734738786
 31
0.0000000000000145
  0
LINE
  5
1B3
330
1F
100
AcDbEntity
  8
0
100
AcDbLine
 10
180.4337522926474
 20
162.490588518632
 30
-0.0000000000000622
 11
180.4337522926474
 21
162.490588518632
 31
13.49999999999994
  0
LINE
  5
1B4
330
1F
100
AcDbEntity
  8
0
100
AcDbLine
 10
186.9288716459595
 20
179.7104602983316
 30
13.49999999999994
 11
186.9288716459595
 21
179.7104602983316
 31
-0.0000000000000622
  0
LINE
  5
1B5
330
1F
100
AcDbEntity
  8
0
100
AcDbLine
 10
157.917751097463
 20
208.6081271727612
 30
30.00000000000001
 11
157.917751097463
 21
208.6081271727612
 31
13.5
  0
LINE
  5
1B6
330
1F
100
AcDbEntity
  8
0
100
AcDbLine
 10
140.0
 20
202.5
 30
13.49999999999994
 11
140.0
 21
202.5
 31
29.99999999999995
  0
LINE
  5
1B7
330
1F
100
AcDbEntity
  8
0
100
AcDbLine
 10
147.0
 20
185.5
 30
22.0
 11
147.0
 21
185.5
 31
30.0
  0
LINE
  5
1B8
330
1F
100
AcDbEntity
  8
0
100
AcDbLine
 10
157.0
 20
185.5
 30
30.0
 11
157.0
 21
185.5
 31
22.0
  0
LINE
  5
1BA
330
1F
100
AcDbEntity
  8
0
100
AcDbLine
 10
140.0
 20
130.0
 30
13.49999999999994
 11
140.0
 21
130.0
 31
29.99999999999995
  0
LINE
  5
1BB
330
1F
100
AcDbEntity
  8
0
100
AcDbLine
 10
144.1824188305426
 20
121.8663815348409
 30
13.49999999999994
 11
144.077412448676
 21
121.9425216911925
 31
29.99999999999995
  0
LINE
  5
1BC
330
1F
100
AcDbEntity
  8
0
100
AcDbLine
 10
147.0
 20
147.0
 30
30.0
 11
147.0
 21
147.0
 31
22.0
  0
LINE
  5
1BD
330
1F
100
AcDbEntity
  8
0
100
AcDbLine
 10
157.0
 20
147.0
 30
30.0
 11
157.0
 21
147.0
 31
22.0
  0
LINE
  5
1C6
330
1F
100
AcDbEntity
  8
0
100
AcDbLine
 10
151.0
 20
186.5
 30
13.5
 11
151.0
 21
186.5
 31
8.5
  0
LINE
  5
1C7
330
1F
100
AcDbEntity
  8
0
100
AcDbLine
 10
161.0
 20
196.5
 30
0.0000000000000093
 11
161.0
 21
196.5
 31
8.5
  0
LINE
  5
1CB
330
1F
100
AcDbEntity
  8
0
100
AcDbLine
 10
151.0
 20
170.5
 30
0.0000000000000049
 11
151.0
 21
170.5
 31
8.5
  0
LINE
  5
1CC
330
1F
100
AcDbEntity
  8
0
100
AcDbLine
 10
151.0
 20
170.5
 30
8.5
 11
151.0
 21
186.5
 31
8.5
  0
ARC
  5
1CE
330
1F
100
AcDbEntity
  8
0
100
AcDbCircle
 10
161.0
 20
191.5
 30
0.0
 40
5.0
100
AcDbArc
 50
321.0240834243757
 51
90.0
  0
LINE
  5
1D5
330
1F
100
AcDbEntity
  8
0
100
AcDbLine
 10
164.8870520910693
 20
188.3550316311108
 30
0.0
 11
151.0
 21
170.5
 31
0.0000000000000049
  0
ARC
  5
1D6
330
1F
100
AcDbEntity
  8
0
100
AcDbCircle
 10
161.0
 20
191.5
 30
8.5
 40
5.0
100
AcDbArc
 50
321.0240834243757
 51
90.0
  0
LINE
  5
1D7
330
1F
100
AcDbEntity
  8
0
100
AcDbLine
 10
164.8870520910693
 20
188.3550316311108
 30
8.5
 11
151.0
 21
170.5
 31
8.500000000000005
  0
ENDSEC
  0
SECTION
  2
OBJECTS
  0
DICTIONARY
  5
C
330
0
100
AcDbDictionary
281
     1
  3
ACAD_BACKGROUND
350
651
  3
ACAD_COLOR
350
1DC
  3
ACAD_GROUP
350
D
  3
ACAD_LAYOUT
350
1A
  3
ACAD_MATERIAL
350
1DB
  3
ACAD_MLEADERSTYLE
350
64C
  3
ACAD_MLINESTYLE
350
17
  3
ACAD_PLOTSETTINGS
350
19
  3
ACAD_PLOTSTYLENAME
350
E
  3
ACAD_SCALELIST
350
62A
  3
ACAD_TABLESTYLE
350
1DD
  3
ACAD_VISUALSTYLE
350
619
  3
ACDB_RECOMPOSE_DATA
350
662
  3
AcDbVariableDictionary
350
5B
  3
DWGPROPS
350
663
  0
DICTIONARY
  5
65A
330
10
100
AcDbDictionary
280
     1
281
     1
  3
ADSK_XREC_LAYER_RECONCILED
360
65B
  0
DICTIONARY
  5
1E2
330
1E1
100
AcDbDictionary
280
     1
281
     1
  3
ACAD_ENHANCEDBLOCK
360
1E3
  3
AcDbDynamicBlockRoundTripPurgePreventer
360
21C
  0
DICTIONARY
  5
233
330
232
100
AcDbDictionary
280
     1
281
     1
  0
DICTIONARY
  5
2AF
330
299
100
AcDbDictionary
280
     1
281
     1
  0
DICTIONARY
  5
2F6
330
2F5
100
AcDbDictionary
280
     1
281
     1
  0
DICTIONARY
  5
348
330
332
100
AcDbDictionary
280
     1
281
     1
  0
DICTIONARY
  5
3AC
330
3AB
100
AcDbDictionary
280
     1
281
     1
  0
DICTIONARY
  5
3FE
330
3E8
100
AcDbDictionary
280
     1
281
     1
  0
DICTIONARY
  5
474
330
45E
100
AcDbDictionary
280
     1
281
     1
  0
DICTIONARY
  5
494
330
493
100
AcDbDictionary
280
     1
281
     1
  0
DICTIONARY
  5
4E6
330
4D0
100
AcDbDictionary
280
     1
281
     1
  0
DICTIONARY
  5
548
330
547
100
AcDbDictionary
280
     1
281
     1
  0
DICTIONARY
  5
59A
330
584
100
AcDbDictionary
280
     1
281
     1
  0
DICTIONARY
  5
651
102
{ACAD_REACTORS
330
C
102
}
330
C
100
AcDbDictionary
281
     1
  0
DICTIONARY
  5
1DC
102
{ACAD_REACTORS
330
C
102
}
330
C
100
AcDbDictionary
281
     1
  0
DICTIONARY
  5
D
102
{ACAD_REACTORS
330
C
102
}
330
C
100
AcDbDictionary
281
     1
  0
DICTIONARY
  5
1A
102
{ACAD_REACTORS
330
C
102
}
330
C
100
AcDbDictionary
281
     1
  3
Layout1
350
1E
  3
Layout2
350
26
  3
Model
350
22
  0
DICTIONARY
  5
1DB
102
{ACAD_REACTORS
330
C
102
}
330
C
100
AcDbDictionary
281
     1
  3
ByBlock
350
609
  3
ByLayer
350
601
  3
Global
350
611
  0
DICTIONARY
  5
64C
102
{ACAD_REACTORS
330
C
102
}
330
C
100
AcDbDictionary
281
     1
  3
Standard
350
64D
  0
DICTIONARY
  5
17
102
{ACAD_REACTORS
330
C
102
}
330
C
100
AcDbDictionary
281
     1
  3
Standard
350
18
  0
DICTIONARY
  5
19
102
{ACAD_REACTORS
330
C
102
}
330
C
100
AcDbDictionary
281
     1
  0
ACDBDICTIONARYWDFLT
  5
E
102
{ACAD_REACTORS
330
C
102
}
330
C
100
AcDbDictionary
281
     1
  3
Normal
350
F
100
AcDbDictionaryWithDefault
340
F
  0
DICTIONARY
  5
62A
102
{ACAD_REACTORS
330
C
102
}
330
C
100
AcDbDictionary
281
     1
  3
A0
350
62B
  3
A1
350
62C
  3
A2
350
62D
  3
A3
350
62E
  3
A4
350
62F
  3
A5
350
630
  3
A6
350
631
  3
A7
350
632
  3
A8
350
633
  3
A9
350
634
  3
B0
350
635
  3
B1
350
636
  3
B2
350
637
  3
B3
350
638
  3
B4
350
639
  3
B5
350
63A
  3
B6
350
63B
  3
B7
350
63C
  3
B8
350
63D
  3
B9
350
63E
  3
C0
350
63F
  3
C1
350
640
  3
C2
350
641
  3
C3
350
642
  3
C4
350
643
  3
C5
350
644
  3
C6
350
645
  3
C7
350
646
  3
C8
350
647
  3
C9
350
648
  3
D0
350
649
  3
D1
350
64A
  3
D2
350
64B
  0
DICTIONARY
  5
1DD
102
{ACAD_REACTORS
330
C
102
}
330
C
100
AcDbDictionary
281
     1
  3
Standard
350
1DE
  0
DICTIONARY
  5
619
102
{ACAD_REACTORS
330
C
102
}
330
C
100
AcDbDictionary
281
     1
  3
2dWireframe
350
61F
  3
3D Hidden
350
621
  3
3dWireframe
350
620
  3
Basic
350
61E
  3
Brighten
350
625
  3
ColorChange
350
629
  3
Conceptual
350
622
  3
Dim
350
624
  3
Facepattern
350
628
  3
Flat
350
61A
  3
FlatWithEdges
350
61B
  3
Gouraud
350
61C
  3
GouraudWithEdges
350
61D
  3
Linepattern
350
627
  3
Realistic
350
623
  3
Thicken
350
626
  0
XRECORD
  5
662
102
{ACAD_REACTORS
330
C
102
}
330
C
100
AcDbXrecord
280
     1
 90
        1
330
1DE
  0
DICTIONARY
  5
5B
102
{ACAD_REACTORS
330
C
102
}
330
C
100
AcDbDictionary
281
     1
  3
CANNOSCALE
350
65D
  3
CMLEADERSTYLE
350
65C
  3
CTABLESTYLE
350
3AA
  3
DIMASSOC
350
5D
  3
HIDETEXT
350
5C
  3
INDEXCTL
350
65F
  3
SORTENTS
350
65E
  0
XRECORD
  5
663
102
{ACAD_REACTORS
330
C
102
}
330
C
100
AcDbXrecord
280
     1
  1
DWGPROPS COOKIE
  2

  3

  4

  6

  7

  8
S.Röttger
  9

300
=
301
=
302
=
303
=
304
=
305
=
306
=
307
=
308
=
309
=
 40
0.2871428125
 41
2453444.045845081
 42
2454551.877249885
  1

 90
        0
  0
XRECORD
  5
65B
102
{ACAD_REACTORS
330
65A
102
}
330
65A
100
AcDbXrecord
280
     1
290
     1
  0
ACAD_EVALUATION_GRAPH
  5
1E3
102
{ACAD_REACTORS
330
1E2
102
}
330
1E2
100
AcDbEvalGraph
 96
     1007
 97
     1007
 91
        0
 93
       32
 95
        8
360
1E4
 92
       42
 92
       42
 92
        3
 92
       41
 91
        1
 93
       32
 95
      184
360
1E5
 92
       46
 92
       46
 92
        7
 92
       45
 91
        2
 93
       32
 95
      360
360
1E6
 92
       48
 92
       48
 92
       47
 92
       47
 91
        3
 93
       32
 95
      472
360
1E7
 92
       44
 92
       44
 92
        8
 92
       43
 91
        4
 93
       32
 95
      528
360
1E8
 92
        0
 92
       51
 92
        1
 92
       52
 91
        5
 93
       32
 95
      536
360
1E9
 92
       -1
 92
       -1
 92
        0
 92
        0
 91
        6
 93
       32
 95
      544
360
1EA
 92
        1
 92
        1
 92
       -1
 92
       -1
 91
        7
 93
       32
 95
      552
360
1EB
 92
        2
 92
        2
 92
       -1
 92
       -1
 91
        8
 93
       32
 95
      608
360
1EC
 92
        3
 92
        3
 92
       -1
 92
       -1
 91
        9
 93
       32
 95
      632
360
1ED
 92
        4
 92
        4
 92
       -1
 92
       -1
 91
       10
 93
       32
 95
      664
360
1EE
 92
        5
 92
        5
 92
       -1
 92
       -1
 91
       11
 93
       32
 95
      672
360
1EF
 92
        6
 92
        6
 92
       -1
 92
       -1
 91
       12
 93
       32
 95
      720
360
1F0
 92
        7
 92
        7
 92
       -1
 92
       -1
 91
       13
 93
       32
 95
      896
360
1F1
 92
        8
 92
        8
 92
       -1
 92
       -1
 91
       14
 93
       32
 95
      904
360
1F2
 92
       41
 92
       52
 92
       42
 92
       51
 91
       15
 93
       32
 95
      905
360
1F3
 92
       50
 92
       50
 92
       49
 92
       49
 91
       16
 93
       32
 95
      909
360
1F4
 92
       11
 92
       11
 92
        9
 92
       33
 91
       17
 93
       32
 95
      910
360
1F5
 92
       -1
 92
       -1
 92
       11
 92
       11
 91
       18
 93
       32
 95
      911
360
1F6
 92
        9
 92
        9
 92
       -1
 92
       -1
 91
       19
 93
       32
 95
      912
360
1F7
 92
       10
 92
       10
 92
       -1
 92
       -1
 91
       20
 93
       32
 95
      917
360
1F8
 92
       14
 92
       14
 92
       12
 92
       34
 91
       21
 93
       32
 95
      918
360
1F9
 92
       -1
 92
       -1
 92
       14
 92
       14
 91
       22
 93
       32
 95
      919
360
1FA
 92
       12
 92
       12
 92
       -1
 92
       -1
 91
       23
 93
       32
 95
      920
360
1FB
 92
       13
 92
       13
 92
       -1
 92
       -1
 91
       24
 93
       32
 95
      924
360
1FC
 92
       17
 92
       17
 92
       15
 92
       35
 91
       25
 93
       32
 95
      925
360
1FD
 92
       -1
 92
       -1
 92
       17
 92
       17
 91
       26
 93
       32
 95
      926
360
1FE
 92
       15
 92
       15
 92
       -1
 92
       -1
 91
       27
 93
       32
 95
      927
360
1FF
 92
       16
 92
       16
 92
       -1
 92
       -1
 91
       28
 93
       32
 95
      931
360
200
 92
       20
 92
       20
 92
       18
 92
       36
 91
       29
 93
       32
 95
      932
360
201
 92
       -1
 92
       -1
 92
       20
 92
       20
 91
       30
 93
       32
 95
      933
360
202
 92
       18
 92
       18
 92
       -1
 92
       -1
 91
       31
 93
       32
 95
      934
360
203
 92
       19
 92
       19
 92
       -1
 92
       -1
 91
       32
 93
       32
 95
      938
360
204
 92
       23
 92
       23
 92
       21
 92
       37
 91
       33
 93
       32
 95
      939
360
205
 92
       -1
 92
       -1
 92
       23
 92
       23
 91
       34
 93
       32
 95
      940
360
206
 92
       21
 92
       21
 92
       -1
 92
       -1
 91
       35
 93
       32
 95
      941
360
207
 92
       22
 92
       22
 92
       -1
 92
       -1
 91
       36
 93
       32
 95
      945
360
208
 92
       26
 92
       26
 92
       24
 92
       38
 91
       37
 93
       32
 95
      946
360
209
 92
       -1
 92
       -1
 92
       26
 92
       26
 91
       38
 93
       32
 95
      947
360
20A
 92
       24
 92
       24
 92
       -1
 92
       -1
 91
       39
 93
       32
 95
      948
360
20B
 92
       25
 92
       25
 92
       -1
 92
       -1
 91
       40
 93
       32
 95
      952
360
20C
 92
       29
 92
       29
 92
       27
 92
       39
 91
       41
 93
       32
 95
      953
360
20D
 92
       -1
 92
       -1
 92
       29
 92
       29
 91
       42
 93
       32
 95
      954
360
20E
 92
       27
 92
       27
 92
       -1
 92
       -1
 91
       43
 93
       32
 95
      955
360
20F
 92
       28
 92
       28
 92
       -1
 92
       -1
 91
       44
 93
       32
 95
      959
360
210
 92
       32
 92
       32
 92
       30
 92
       40
 91
       45
 93
       32
 95
      960
360
211
 92
       -1
 92
       -1
 92
       32
 92
       32
 91
       46
 93
       32
 95
      961
360
212
 92
       30
 92
       30
 92
       -1
 92
       -1
 91
       47
 93
       32
 95
      962
360
213
 92
       31
 92
       31
 92
       -1
 92
       -1
 91
       48
 93
       32
 95
      995
360
214
 92
       33
 92
       33
 92
       -1
 92
       -1
 91
       49
 93
       32
 95
      997
360
215
 92
       34
 92
       34
 92
       -1
 92
       -1
 91
       50
 93
       32
 95
      998
360
216
 92
       35
 92
       35
 92
       -1
 92
       -1
 91
       51
 93
       32
 95
      999
360
217
 92
       36
 92
       36
 92
       -1
 92
       -1
 91
       52
 93
       32
 95
     1000
360
218
 92
       37
 92
       37
 92
       -1
 92
       -1
 91
       53
 93
       32
 95
     1001
360
219
 92
       38
 92
       38
 92
       -1
 92
       -1
 91
       54
 93
       32
 95
     1002
360
21A
 92
       39
 92
       39
 92
       -1
 92
       -1
 91
       55
 93
       32
 95
     1003
360
21B
 92
       40
 92
       40
 92
       -1
 92
       -1
 92
        0
 93
        0
 94
        1
 91
        5
 91
        4
 92
       -1
 92
       51
 92
       -1
 92
       -1
 92
       -1
 92
        1
 93
        0
 94
        1
 91
        4
 91
        6
 92
       -1
 92
       -1
 92
       -1
 92
        2
 92
       -1
 92
        2
 93
        0
 94
        1
 91
        4
 91
        7
 92
       -1
 92
       -1
 92
        1
 92
       52
 92
       -1
 92
        3
 93
        0
 94
        2
 91
        0
 91
        8
 92
       -1
 92
       -1
 92
       -1
 92
        4
 92
       -1
 92
        4
 93
        0
 94
        2
 91
        0
 91
        9
 92
       -1
 92
       -1
 92
        3
 92
        5
 92
       -1
 92
        5
 93
        0
 94
        2
 91
        0
 91
       10
 92
       -1
 92
       -1
 92
        4
 92
        6
 92
       -1
 92
        6
 93
        0
 94
        2
 91
        0
 91
       11
 92
       -1
 92
       -1
 92
        5
 92
       41
 92
       -1
 92
        7
 93
        0
 94
        2
 91
        1
 91
       12
 92
       -1
 92
       -1
 92
       -1
 92
       45
 92
       -1
 92
        8
 93
        0
 94
        5
 91
        3
 91
       13
 92
       -1
 92
       -1
 92
       -1
 92
       43
 92
       -1
 92
        9
 93
        0
 94
        1
 91
       16
 91
       18
 92
       -1
 92
       -1
 92
       -1
 92
       10
 92
       -1
 92
       10
 93
        0
 94
        1
 91
       16
 91
       19
 92
       -1
 92
       -1
 92
        9
 92
       33
 92
       -1
 92
       11
 93
        0
 94
        2
 91
       17
 91
       16
 92
       -1
 92
       -1
 92
       -1
 92
       -1
 92
       -1
 92
       12
 93
        0
 94
        1
 91
       20
 91
       22
 92
       -1
 92
       -1
 92
       -1
 92
       13
 92
       -1
 92
       13
 93
        0
 94
        1
 91
       20
 91
       23
 92
       -1
 92
       -1
 92
       12
 92
       34
 92
       -1
 92
       14
 93
        0
 94
        2
 91
       21
 91
       20
 92
       -1
 92
       -1
 92
       -1
 92
       -1
 92
       -1
 92
       15
 93
        0
 94
        1
 91
       24
 91
       26
 92
       -1
 92
       -1
 92
       -1
 92
       16
 92
       -1
 92
       16
 93
        0
 94
        1
 91
       24
 91
       27
 92
       -1
 92
       -1
 92
       15
 92
       35
 92
       -1
 92
       17
 93
        0
 94
        2
 91
       25
 91
       24
 92
       -1
 92
       -1
 92
       -1
 92
       -1
 92
       -1
 92
       18
 93
        0
 94
        1
 91
       28
 91
       30
 92
       -1
 92
       -1
 92
       -1
 92
       19
 92
       -1
 92
       19
 93
        0
 94
        1
 91
       28
 91
       31
 92
       -1
 92
       -1
 92
       18
 92
       36
 92
       -1
 92
       20
 93
        0
 94
        2
 91
       29
 91
       28
 92
       -1
 92
       -1
 92
       -1
 92
       -1
 92
       -1
 92
       21
 93
        0
 94
        1
 91
       32
 91
       34
 92
       -1
 92
       -1
 92
       -1
 92
       22
 92
       -1
 92
       22
 93
        0
 94
        1
 91
       32
 91
       35
 92
       -1
 92
       -1
 92
       21
 92
       37
 92
       -1
 92
       23
 93
        0
 94
        2
 91
       33
 91
       32
 92
       -1
 92
       -1
 92
       -1
 92
       -1
 92
       -1
 92
       24
 93
        0
 94
        1
 91
       36
 91
       38
 92
       -1
 92
       -1
 92
       -1
 92
       25
 92
       -1
 92
       25
 93
        0
 94
        1
 91
       36
 91
       39
 92
       -1
 92
       -1
 92
       24
 92
       38
 92
       -1
 92
       26
 93
        0
 94
        2
 91
       37
 91
       36
 92
       -1
 92
       -1
 92
       -1
 92
       -1
 92
       -1
 92
       27
 93
        0
 94
        1
 91
       40
 91
       42
 92
       -1
 92
       -1
 92
       -1
 92
       28
 92
       -1
 92
       28
 93
        0
 94
        1
 91
       40
 91
       43
 92
       -1
 92
       -1
 92
       27
 92
       39
 92
       -1
 92
       29
 93
        0
 94
        2
 91
       41
 91
       40
 92
       -1
 92
       -1
 92
       -1
 92
       -1
 92
       -1
 92
       30
 93
        0
 94
        1
 91
       44
 91
       46
 92
       -1
 92
       -1
 92
       -1
 92
       31
 92
       -1
 92
       31
 93
        0
 94
        1
 91
       44
 91
       47
 92
       -1
 92
       -1
 92
       30
 92
       40
 92
       -1
 92
       32
 93
        0
 94
        2
 91
       45
 91
       44
 92
       -1
 92
       -1
 92
       -1
 92
       -1
 92
       -1
 92
       33
 93
        0
 94
        2
 91
       16
 91
       48
 92
       -1
 92
       -1
 92
       10
 92
       -1
 92
       -1
 92
       34
 93
        0
 94
        2
 91
       20
 91
       49
 92
       -1
 92
       -1
 92
       13
 92
       -1
 92
       -1
 92
       35
 93
        0
 94
        2
 91
       24
 91
       50
 92
       -1
 92
       -1
 92
       16
 92
       -1
 92
       -1
 92
       36
 93
        0
 94
        2
 91
       28
 91
       51
 92
       -1
 92
       -1
 92
       19
 92
       -1
 92
       -1
 92
       37
 93
        0
 94
        2
 91
       32
 91
       52
 92
       -1
 92
       -1
 92
       22
 92
       -1
 92
       -1
 92
       38
 93
        0
 94
        2
 91
       36
 91
       53
 92
       -1
 92
       -1
 92
       25
 92
       -1
 92
       -1
 92
       39
 93
        0
 94
        2
 91
       40
 91
       54
 92
       -1
 92
       -1
 92
       28
 92
       -1
 92
       -1
 92
       40
 93
        0
 94
        2
 91
       44
 91
       55
 92
       -1
 92
       -1
 92
       31
 92
       -1
 92
       -1
 92
       41
 93
        4
 94
        1
 91
        0
 91
       14
 92
       -1
 92
       43
 92
        6
 92
       -1
 92
       42
 92
       42
 93
        4
 94
        1
 91
       14
 91
        0
 92
       -1
 92
       -1
 92
       -1
 92
       44
 92
       41
 92
       43
 93
        4
 94
        1
 91
        3
 91
       14
 92
       41
 92
       45
 92
        8
 92
       -1
 92
       44
 92
       44
 93
        4
 94
        1
 91
       14
 91
        3
 92
       -1
 92
       -1
 92
       42
 92
       46
 92
       43
 92
       45
 93
        4
 94
        1
 91
        1
 91
       14
 92
       43
 92
       47
 92
        7
 92
       -1
 92
       46
 92
       46
 93
        4
 94
        1
 91
       14
 91
        1
 92
       -1
 92
       -1
 92
       44
 92
       48
 92
       45
 92
       47
 93
        4
 94
        1
 91
        2
 91
       14
 92
       45
 92
       49
 92
       -1
 92
       -1
 92
       48
 92
       48
 93
        4
 94
        1
 91
       14
 91
        2
 92
       -1
 92
       -1
 92
       46
 92
       50
 92
       47
 92
       49
 93
        4
 94
        1
 91
       15
 91
       14
 92
       47
 92
       52
 92
       -1
 92
       -1
 92
       50
 92
       50
 93
        4
 94
        1
 91
       14
 91
       15
 92
       -1
 92
       -1
 92
       48
 92
       51
 92
       49
 92
       51
 93
        4
 94
        1
 91
       14
 91
        4
 92
        0
 92
       -1
 92
       50
 92
       -1
 92
       52
 92
       52
 93
        4
 94
        1
 91
        4
 91
       14
 92
       49
 92
       -1
 92
        2
 92
       -1
 92
       51
  0
ACDB_DYNAMICBLOCKPURGEPREVENTER_VERSION
  5
21C
102
{ACAD_REACTORS
330
1E2
102
}
330
1E2
100
AcDbDynamicBlockPurgePreventer
 70
     1
  0
LAYOUT
  5
1E
102
{ACAD_XDICTIONARY
360
664
102
}
102
{ACAD_REACTORS
330
1A
102
}
330
1A
100
AcDbPlotSettings
  1

  2
HP DeskJet 950C/952C/959C
  4

  6

 40
0.0
 41
0.0
 42
0.0
 43
0.0
 44
0.0
 45
0.0
 46
0.0
 47
0.0
 48
0.0
 49
0.0
140
0.0
141
0.0
142
1.0
143
1.0
 70
   688
 72
     0
 73
     0
 74
     5
  7

 75
    16
147
1.0
148
0.0
149
0.0
100
AcDbLayout
  1
Layout1
 70
     1
 71
     1
 10
0.0
 20
0.0
 11
420.0
 21
297.0
 12
0.0
 22
0.0
 32
0.0
 14
1.000000000000000E+20
 24
1.000000000000000E+20
 34
1.000000000000000E+20
 15
-1.000000000000000E+20
 25
-1.000000000000000E+20
 35
-1.000000000000000E+20
146
0.0
 13
0.0
 23
0.0
 33
0.0
 16
1.0
 26
0.0
 36
0.0
 17
0.0
 27
1.0
 37
0.0
 76
     0
330
1B
  0
LAYOUT
  5
26
102
{ACAD_XDICTIONARY
360
668
102
}
102
{ACAD_REACTORS
330
1A
102
}
330
1A
100
AcDbPlotSettings
  1

  2
HP DeskJet 950C/952C/959C
  4

  6

 40
0.0
 41
0.0
 42
0.0
 43
0.0
 44
0.0
 45
0.0
 46
0.0
 47
0.0
 48
0.0
 49
0.0
140
0.0
141
0.0
142
1.0
143
1.0
 70
   688
 72
     0
 73
     0
 74
     5
  7

 75
    16
147
1.0
148
0.0
149
0.0
100
AcDbLayout
  1
Layout2
 70
     1
 71
     2
 10
0.0
 20
0.0
 11
12.0
 21
9.0
 12
0.0
 22
0.0
 32
0.0
 14
0.0
 24
0.0
 34
0.0
 15
0.0
 25
0.0
 35
0.0
146
0.0
 13
0.0
 23
0.0
 33
0.0
 16
1.0
 26
0.0
 36
0.0
 17
0.0
 27
1.0
 37
0.0
 76
     0
330
23
  0
LAYOUT
  5
22
102
{ACAD_XDICTIONARY
360
666
102
}
102
{ACAD_REACTORS
330
1A
102
}
330
1A
100
AcDbPlotSettings
  1

  2
HP DeskJet 950C/952C/959C
  4

  6

 40
0.0
 41
0.0
 42
0.0
 43
0.0
 44
0.0
 45
0.0
 46
0.0
 47
0.0
 48
0.0
 49
0.0
140
0.0
141
0.0
142
1.0
143
1.0
 70
  1712
 72
     0
 73
     0
 74
     0
  7

 75
     0
147
1.0
148
0.0
149
0.0
100
AcDbLayout
  1
Model
 70
     1
 71
     0
 10
0.0
 20
0.0
 11
12.0
 21
9.0
 12
0.0
 22
0.0
 32
0.0
 14
0.0
 24
0.0
 34
0.0
 15
0.0
 25
0.0
 35
0.0
146
0.0
 13
0.0
 23
0.0
 33
0.0
 16
1.0
 26
0.0
 36
0.0
 17
0.0
 27
1.0
 37
0.0
 76
     0
330
1F
331
5FE
  0
MATERIAL
  5
609
102
{ACAD_XDICTIONARY
360
60A
102
}
102
{ACAD_REACTORS
330
1DB
102
}
330
1DB
100
AcDbMaterial
  1
ByBlock
 72
     0
 43
0.0008202099737533
 43
0.0
 43
0.0
 43
0.0
 43
0.0
 43
0.0008202099737533
 43
0.0
 43
0.0
 43
0.0
 43
0.0
 43
1.0
 43
0.0
 43
0.0
 43
0.0
 43
0.0
 43
1.0
 77
     0
 47
0.0008202099737533
 47
0.0
 47
0.0
 47
0.0
 47
0.0
 47
0.0008202099737533
 47
0.0
 47
0.0
 47
0.0
 47
0.0
 47
1.0
 47
0.0
 47
0.0
 47
0.0
 47
0.0
 47
1.0
171
     0
 49
0.0008202099737533
 49
0.0
 49
0.0
 49
0.0
 49
0.0
 49
0.0008202099737533
 49
0.0
 49
0.0
 49
0.0
 49
0.0
 49
1.0
 49
0.0
 49
0.0
 49
0.0
 49
0.0
 49
1.0
175
     0
142
0.0008202099737533
142
0.0
142
0.0
142
0.0
142
0.0
142
0.0008202099737533
142
0.0
142
0.0
142
0.0
142
0.0
142
1.0
142
0.0
142
0.0
142
0.0
142
0.0
142
1.0
179
     0
144
0.0008202099737533
144
0.0
144
0.0
144
0.0
144
0.0
144
0.0008202099737533
144
0.0
144
0.0
144
0.0
144
0.0
144
1.0
144
0.0
144
0.0
144
0.0
144
0.0
144
1.0
147
0.0008202099737533
147
0.0
147
0.0
147
0.0
147
0.0
147
0.0008202099737533
147
0.0
147
0.0
147
0.0
147
0.0
147
1.0
147
0.0
147
0.0
147
0.0
147
0.0
147
1.0
  0
MATERIAL
  5
601
102
{ACAD_XDICTIONARY
360
602
102
}
102
{ACAD_REACTORS
330
1DB
102
}
330
1DB
100
AcDbMaterial
  1
ByLayer
 72
     0
 43
0.0008202099737533
 43
0.0
 43
0.0
 43
0.0
 43
0.0
 43
0.0008202099737533
 43
0.0
 43
0.0
 43
0.0
 43
0.0
 43
1.0
 43
0.0
 43
0.0
 43
0.0
 43
0.0
 43
1.0
 77
     0
 47
0.0008202099737533
 47
0.0
 47
0.0
 47
0.0
 47
0.0
 47
0.0008202099737533
 47
0.0
 47
0.0
 47
0.0
 47
0.0
 47
1.0
 47
0.0
 47
0.0
 47
0.0
 47
0.0
 47
1.0
171
     0
 49
0.0008202099737533
 49
0.0
 49
0.0
 49
0.0
 49
0.0
 49
0.0008202099737533
 49
0.0
 49
0.0
 49
0.0
 49
0.0
 49
1.0
 49
0.0
 49
0.0
 49
0.0
 49
0.0
 49
1.0
175
     0
142
0.0008202099737533
142
0.0
142
0.0
142
0.0
142
0.0
142
0.0008202099737533
142
0.0
142
0.0
142
0.0
142
0.0
142
1.0
142
0.0
142
0.0
142
0.0
142
0.0
142
1.0
179
     0
144
0.0008202099737533
144
0.0
144
0.0
144
0.0
144
0.0
144
0.0008202099737533
144
0.0
144
0.0
144
0.0
144
0.0
144
1.0
144
0.0
144
0.0
144
0.0
144
0.0
144
1.0
147
0.0008202099737533
147
0.0
147
0.0
147
0.0
147
0.0
147
0.0008202099737533
147
0.0
147
0.0
147
0.0
147
0.0
147
1.0
147
0.0
147
0.0
147
0.0
147
0.0
147
1.0
  0
MATERIAL
  5
611
102
{ACAD_XDICTIONARY
360
612
102
}
102
{ACAD_REACTORS
330
1DB
102
}
330
1DB
100
AcDbMaterial
  1
Global
 72
     0
 43
0.0008202099737533
 43
0.0
 43
0.0
 43
0.0
 43
0.0
 43
0.0008202099737533
 43
0.0
 43
0.0
 43
0.0
 43
0.0
 43
1.0
 43
0.0
 43
0.0
 43
0.0
 43
0.0
 43
1.0
 77
     0
 47
0.0008202099737533
 47
0.0
 47
0.0
 47
0.0
 47
0.0
 47
0.0008202099737533
 47
0.0
 47
0.0
 47
0.0
 47
0.0
 47
1.0
 47
0.0
 47
0.0
 47
0.0
 47
0.0
 47
1.0
171
     0
 49
0.0008202099737533
 49
0.0
 49
0.0
 49
0.0
 49
0.0
 49
0.0008202099737533
 49
0.0
 49
0.0
 49
0.0
 49
0.0
 49
1.0
 49
0.0
 49
0.0
 49
0.0
 49
0.0
 49
1.0
175
     0
142
0.0008202099737533
142
0.0
142
0.0
142
0.0
142
0.0
142
0.0008202099737533
142
0.0
142
0.0
142
0.0
142
0.0
142
1.0
142
0.0
142
0.0
142
0.0
142
0.0
142
1.0
179
     0
144
0.0008202099737533
144
0.0
144
0.0
144
0.0
144
0.0
144
0.0008202099737533
144
0.0
144
0.0
144
0.0
144
0.0
144
1.0
144
0.0
144
0.0
144
0.0
144
0.0
144
1.0
147
0.0008202099737533
147
0.0
147
0.0
147
0.0
147
0.0
147
0.0008202099737533
147
0.0
147
0.0
147
0.0
147
0.0
147
1.0
147
0.0
147
0.0
147
0.0
147
0.0
147
1.0
  0
MLEADERSTYLE
  5
64D
102
{ACAD_REACTORS
330
64C
102
}
330
64C
100
AcDbMLeaderStyle
170
     2
171
     1
172
     0
 90
        2
 40
0.0
 41
0.0
173
     1
 91
-1056964608
340
14
 92
       -2
290
     1
 42
2.0
291
     1
 43
0.36
  3
Standard
 44
4.0
300

342
11
174
     1
178
     6
175
     1
176
     0
 93
-1056964608
 45
4.0
292
     0
297
     0
 46
4.0
 94
-1056964608
 47
1.0
 49
1.0
140
1.0
293
     1
141
0.0
294
     1
177
     0
142
1.0
295
     0
296
     0
143
0.125
1001
ACAD_MLEADERVER
1070
     2
  0
MLINESTYLE
  5
18
102
{ACAD_REACTORS
330
17
102
}
330
17
100
AcDbMlineStyle
  2
STANDARD
 70
     0
  3

 62
   256
 51
90.0
 52
90.0
 71
     2
 49
0.5
 62
   256
  6
BYLAYER
 49
-0.5
 62
   256
  6
BYLAYER
  0
ACDBPLACEHOLDER
  5
F
102
{ACAD_REACTORS
330
E
102
}
330
E
  0
SCALE
  5
62B
102
{ACAD_REACTORS
330
62A
102
}
330
62A
100
AcDbScale
 70
     0
300
1:1
140
1.0
141
1.0
290
     1
  0
SCALE
  5
62C
102
{ACAD_REACTORS
330
62A
102
}
330
62A
100
AcDbScale
 70
     0
300
1:2
140
1.0
141
2.0
290
     0
  0
SCALE
  5
62D
102
{ACAD_REACTORS
330
62A
102
}
330
62A
100
AcDbScale
 70
     0
300
1:4
140
1.0
141
4.0
290
     0
  0
SCALE
  5
62E
102
{ACAD_REACTORS
330
62A
102
}
330
62A
100
AcDbScale
 70
     0
300
1:5
140
1.0
141
5.0
290
     0
  0
SCALE
  5
62F
102
{ACAD_REACTORS
330
62A
102
}
330
62A
100
AcDbScale
 70
     0
300
1:8
140
1.0
141
8.0
290
     0
  0
SCALE
  5
630
102
{ACAD_REACTORS
330
62A
102
}
330
62A
100
AcDbScale
 70
     0
300
1:10
140
1.0
141
10.0
290
     0
  0
SCALE
  5
631
102
{ACAD_REACTORS
330
62A
102
}
330
62A
100
AcDbScale
 70
     0
300
1:16
140
1.0
141
16.0
290
     0
  0
SCALE
  5
632
102
{ACAD_REACTORS
330
62A
102
}
330
62A
100
AcDbScale
 70
     0
300
1:20
140
1.0
141
20.0
290
     0
  0
SCALE
  5
633
102
{ACAD_REACTORS
330
62A
102
}
330
62A
100
AcDbScale
 70
     0
300
1:30
140
1.0
141
30.0
290
     0
  0
SCALE
  5
634
102
{ACAD_REACTORS
330
62A
102
}
330
62A
100
AcDbScale
 70
     0
300
1:40
140
1.0
141
40.0
290
     0
  0
SCALE
  5
635
102
{ACAD_REACTORS
330
62A
102
}
330
62A
100
AcDbScale
 70
     0
300
1:50
140
1.0
141
50.0
290
     0
  0
SCALE
  5
636
102
{ACAD_REACTORS
330
62A
102
}
330
62A
100
AcDbScale
 70
     0
300
1:100
140
1.0
141
100.0
290
     0
  0
SCALE
  5
637
102
{ACAD_REACTORS
330
62A
102
}
330
62A
100
AcDbScale
 70
     0
300
2:1
140
2.0
141
1.0
290
     0
  0
SCALE
  5
638
102
{ACAD_REACTORS
330
62A
102
}
330
62A
100
AcDbScale
 70
     0
300
4:1
140
4.0
141
1.0
290
     0
  0
SCALE
  5
639
102
{ACAD_REACTORS
330
62A
102
}
330
62A
100
AcDbScale
 70
     0
300
8:1
140
8.0
141
1.0
290
     0
  0
SCALE
  5
63A
102
{ACAD_REACTORS
330
62A
102
}
330
62A
100
AcDbScale
 70
     0
300
10:1
140
10.0
141
1.0
290
     0
  0
SCALE
  5
63B
102
{ACAD_REACTORS
330
62A
102
}
330
62A
100
AcDbScale
 70
     0
300
100:1
140
100.0
141
1.0
290
     0
  0
SCALE
  5
63C
102
{ACAD_REACTORS
330
62A
102
}
330
62A
100
AcDbScale
 70
     0
300
1/128" = 1'-0"
140
0.0078125
141
12.0
290
     0
  0
SCALE
  5
63D
102
{ACAD_REACTORS
330
62A
102
}
330
62A
100
AcDbScale
 70
     0
300
1/64" = 1'-0"
140
0.015625
141
12.0
290
     0
  0
SCALE
  5
63E
102
{ACAD_REACTORS
330
62A
102
}
330
62A
100
AcDbScale
 70
     0
300
1/32" = 1'-0"
140
0.03125
141
12.0
290
     0
  0
SCALE
  5
63F
102
{ACAD_REACTORS
330
62A
102
}
330
62A
100
AcDbScale
 70
     0
300
1/16" = 1'-0"
140
0.0625
141
12.0
290
     0
  0
SCALE
  5
640
102
{ACAD_REACTORS
330
62A
102
}
330
62A
100
AcDbScale
 70
     0
300
3/32" = 1'-0"
140
0.09375
141
12.0
290
     0
  0
SCALE
  5
641
102
{ACAD_REACTORS
330
62A
102
}
330
62A
100
AcDbScale
 70
     0
300
1/8" = 1'-0"
140
0.125
141
12.0
290
     0
  0
SCALE
  5
642
102
{ACAD_REACTORS
330
62A
102
}
330
62A
100
AcDbScale
 70
     0
300
3/16" = 1'-0"
140
0.1875
141
12.0
290
     0
  0
SCALE
  5
643
102
{ACAD_REACTORS
330
62A
102
}
330
62A
100
AcDbScale
 70
     0
300
1/4" = 1'-0"
140
0.25
141
12.0
290
     0
  0
SCALE
  5
644
102
{ACAD_REACTORS
330
62A
102
}
330
62A
100
AcDbScale
 70
     0
300
3/8" = 1'-0"
140
0.375
141
12.0
290
     0
  0
SCALE
  5
645
102
{ACAD_REACTORS
330
62A
102
}
330
62A
100
AcDbScale
 70
     0
300
1/2" = 1'-0"
140
0.5
141
12.0
290
     0
  0
SCALE
  5
646
102
{ACAD_REACTORS
330
62A
102
}
330
62A
100
AcDbScale
 70
     0
300
3/4" = 1'-0"
140
0.75
141
12.0
290
     0
  0
SCALE
  5
647
102
{ACAD_REACTORS
330
62A
102
}
330
62A
100
AcDbScale
 70
     0
300
1" = 1'-0"
140
1.0
141
12.0
290
     0
  0
SCALE
  5
648
102
{ACAD_REACTORS
330
62A
102
}
330
62A
100
AcDbScale
 70
     0
300
1-1/2" = 1'-0"
140
1.5
141
12.0
290
     0
  0
SCALE
  5
649
102
{ACAD_REACTORS
330
62A
102
}
330
62A
100
AcDbScale
 70
     0
300
3" = 1'-0"
140
3.0
141
12.0
290
     0
  0
SCALE
  5
64A
102
{ACAD_REACTORS
330
62A
102
}
330
62A
100
AcDbScale
 70
     0
300
6" = 1'-0"
140
6.0
141
12.0
290
     0
  0
SCALE
  5
64B
102
{ACAD_REACTORS
330
62A
102
}
330
62A
100
AcDbScale
 70
     0
300
1'-0" = 1'-0"
140
12.0
141
12.0
290
     0
  0
TABLESTYLE
  5
1DE
102
{ACAD_XDICTIONARY
360
660
102
}
102
{ACAD_REACTORS
330
1DD
102
}
330
1DD
100
AcDbTableStyle
  3
Standard
 70
     0
 71
     0
 40
1.5
 41
1.5
280
     0
281
     0
  7
Standard
140
4.5
170
     2
 62
     0
 63
     7
283
     0
274
    -2
284
     1
 64
     0
275
    -2
285
     1
 65
     0
276
    -2
286
     1
 66
     0
277
    -2
287
     1
 67
     0
278
    -2
288
     1
 68
     0
279
    -2
289
     1
 69
     0
  7
Standard
140
6.0
170
     5
 62
     0
 63
     7
283
     0
274
    -2
284
     1
 64
     0
275
    -2
285
     1
 65
     0
276
    -2
286
     1
 66
     0
277
    -2
287
     1
 67
     0
278
    -2
288
     1
 68
     0
279
    -2
289
     1
 69
     0
  7
Standard
140
4.5
170
     5
 62
     0
 63
     7
283
     0
274
    -2
284
     1
 64
     0
275
    -2
285
     1
 65
     0
276
    -2
286
     1
 66
     0
277
    -2
287
     1
 67
     0
278
    -2
288
     1
 68
     0
279
    -2
289
     1
 69
     0
  0
VISUALSTYLE
  5
61F
102
{ACAD_REACTORS
330
619
102
}
330
619
100
AcDbVisualStyle
  2
2dWireframe
 70
     4
 71
     0
 72
     2
 73
     0
 90
        0
 40
-0.6
 41
-30.0
 62
     5
 63
     7
 74
     1
 91
        4
 64
     7
 65
   257
 75
     1
175
     1
 42
1.0
 92
        0
 66
   257
 43
1.0
 76
     1
 77
     6
 78
     2
 67
     7
 79
     5
170
     0
171
     0
290
     0
174
     0
 93
        1
 44
0.0
173
     0
291
     0
 45
0.0
1001
ACAD
1000
AcDbSavedByObjectVersion
1070
     0
  0
VISUALSTYLE
  5
621
102
{ACAD_REACTORS
330
619
102
}
330
619
100
AcDbVisualStyle
  2
3D Hidden
 70
     6
 71
     1
 72
     2
 73
     2
 90
        0
 40
-0.6
 41
-30.0
 62
     5
 63
     7
 74
     2
 91
        2
 64
     7
 65
   257
 75
     2
175
     1
 42
40.0
 92
        0
 66
   257
 43
1.0
 76
     1
 77
     6
 78
     2
 67
     7
 79
     3
170
     0
171
     0
290
     0
174
     0
 93
        1
 44
0.0
173
     0
291
     0
 45
0.0
1001
ACAD
1000
AcDbSavedByObjectVersion
1070
     0
  0
VISUALSTYLE
  5
620
102
{ACAD_REACTORS
330
619
102
}
330
619
100
AcDbVisualStyle
  2
3dWireframe
 70
     5
 71
     0
 72
     2
 73
     0
 90
        0
 40
-0.6
 41
-30.0
 62
     5
 63
     7
 74
     1
 91
        4
 64
     7
 65
   257
 75
     1
175
     1
 42
1.0
 92
        0
 66
   257
 43
1.0
 76
     1
 77
     6
 78
     2
 67
     7
 79
     5
170
     0
171
     0
290
     0
174
     0
 93
        1
 44
0.0
173
     0
291
     0
 45
0.0
1001
ACAD
1000
AcDbSavedByObjectVersion
1070
     0
  0
VISUALSTYLE
  5
61E
102
{ACAD_REACTORS
330
619
102
}
330
619
100
AcDbVisualStyle
  2
Basic
 70
     7
 71
     1
 72
     0
 73
     1
 90
        0
 40
-0.6
 41
-30.0
 62
     5
 63
     7
 74
     0
 91
        4
 64
     7
 65
   257
 75
     1
175
     1
 42
1.0
 92
        8
 66
     7
 43
1.0
 76
     1
 77
     6
 78
     2
 67
     7
 79
     5
170
     0
171
     0
290
     0
174
     0
 93
        1
 44
0.0
173
     0
291
     1
 45
0.0
1001
ACAD
1000
AcDbSavedByObjectVersion
1070
     0
  0
VISUALSTYLE
  5
625
102
{ACAD_REACTORS
330
619
102
}
330
619
100
AcDbVisualStyle
  2
Brighten
 70
    12
 71
     2
 72
     2
 73
     0
 90
        0
 40
-0.6
 41
-30.0
 62
     5
 63
     7
 74
     1
 91
        4
 64
     7
 65
   257
 75
     1
175
     1
 42
1.0
 92
        8
 66
     7
 43
1.0
 76
     1
 77
     6
 78
     2
 67
     7
 79
     5
170
     0
171
     0
290
     0
174
     0
 93
        1
 44
50.0
173
     0
291
     1
 45
0.0
1001
ACAD
1000
AcDbSavedByObjectVersion
1070
     0
  0
VISUALSTYLE
  5
629
102
{ACAD_REACTORS
330
619
102
}
330
619
100
AcDbVisualStyle
  2
ColorChange
 70
    16
 71
     2
 72
     2
 73
     3
 90
        0
 40
-0.6
 41
-30.0
 62
     5
 63
     8
 74
     1
 91
        4
 64
     7
 65
   257
 75
     1
175
     1
 42
1.0
 92
        8
 66
     8
 43
1.0
 76
     1
 77
     6
 78
     2
 67
     7
 79
     5
170
     0
171
     0
290
     0
174
     0
 93
        1
 44
0.0
173
     0
291
     1
 45
0.0
1001
ACAD
1000
AcDbSavedByObjectVersion
1070
     0
  0
VISUALSTYLE
  5
622
102
{ACAD_REACTORS
330
619
102
}
330
619
100
AcDbVisualStyle
  2
Conceptual
 70
     9
 71
     3
 72
     2
 73
     0
 90
        0
 40
-0.6
 41
-30.0
 62
     5
 63
     7
 74
     2
 91
        2
 64
     7
 65
   257
 75
     1
175
     1
 42
40.0
 92
        8
 66
     7
 43
1.0
 76
     1
 77
     6
 78
     2
 67
     7
 79
     3
170
     0
171
     0
290
     0
174
     0
 93
        1
 44
0.0
173
     0
291
     0
 45
0.0
1001
ACAD
1000
AcDbSavedByObjectVersion
1070
     0
  0
VISUALSTYLE
  5
624
102
{ACAD_REACTORS
330
619
102
}
330
619
100
AcDbVisualStyle
  2
Dim
 70
    11
 71
     2
 72
     2
 73
     0
 90
        0
 40
-0.6
 41
-30.0
 62
     5
 63
     7
 74
     1
 91
        4
 64
     7
 65
   257
 75
     1
175
     1
 42
1.0
 92
        8
 66
     7
 43
1.0
 76
     1
 77
     6
 78
     2
 67
     7
 79
     5
170
     0
171
     0
290
     0
174
     0
 93
        1
 44
-50.0
173
     0
291
     1
 45
0.0
1001
ACAD
1000
AcDbSavedByObjectVersion
1070
     0
  0
VISUALSTYLE
  5
628
102
{ACAD_REACTORS
330
619
102
}
330
619
100
AcDbVisualStyle
  2
Facepattern
 70
    15
 71
     2
 72
     2
 73
     0
 90
        0
 40
-0.6
 41
-30.0
 62
     5
 63
     7
 74
     1
 91
        4
 64
     7
 65
   257
 75
     1
175
     1
 42
1.0
 92
        8
 66
     7
 43
1.0
 76
     1
 77
     6
 78
     2
 67
     7
 79
     5
170
     0
171
     0
290
     0
174
     0
 93
        1
 44
0.0
173
     0
291
     1
 45
0.0
1001
ACAD
1000
AcDbSavedByObjectVersion
1070
     0
  0
VISUALSTYLE
  5
61A
102
{ACAD_REACTORS
330
619
102
}
330
619
100
AcDbVisualStyle
  2
Flat
 70
     0
 71
     2
 72
     1
 73
     1
 90
        2
 40
-0.6
 41
30.0
 62
     5
 63
     7
 74
     0
 91
        4
 64
     7
 65
   257
 75
     1
175
     1
 42
1.0
 92
        8
 66
     7
 43
1.0
 76
     1
 77
     6
 78
     2
 67
     7
 79
     5
170
     0
171
     0
290
     0
174
     0
 93
       13
 44
0.0
173
     0
291
     1
 45
0.0
1001
ACAD
1000
AcDbSavedByObjectVersion
1070
     0
  0
VISUALSTYLE
  5
61B
102
{ACAD_REACTORS
330
619
102
}
330
619
100
AcDbVisualStyle
  2
FlatWithEdges
 70
     1
 71
     2
 72
     1
 73
     1
 90
        2
 40
-0.6
 41
30.0
 62
     5
 63
     7
 74
     1
 91
        4
 64
     7
 65
   257
 75
     1
175
     1
 42
1.0
 92
        0
 66
   257
 43
1.0
 76
     1
 77
     6
 78
     2
 67
     7
 79
     5
170
     0
171
     0
290
     0
174
     0
 93
       13
 44
0.0
173
     0
291
     1
 45
0.0
1001
ACAD
1000
AcDbSavedByObjectVersion
1070
     0
  0
VISUALSTYLE
  5
61C
102
{ACAD_REACTORS
330
619
102
}
330
619
100
AcDbVisualStyle
  2
Gouraud
 70
     2
 71
     2
 72
     2
 73
     1
 90
        2
 40
-0.6
 41
30.0
 62
     5
 63
     7
 74
     0
 91
        4
 64
     7
 65
   257
 75
     1
175
     1
 42
1.0
 92
        0
 66
     7
 43
1.0
 76
     1
 77
     6
 78
     2
 67
     7
 79
     5
170
     0
171
     0
290
     0
174
     0
 93
       13
 44
0.0
173
     0
291
     1
 45
0.0
1001
ACAD
1000
AcDbSavedByObjectVersion
1070
     0
  0
VISUALSTYLE
  5
61D
102
{ACAD_REACTORS
330
619
102
}
330
619
100
AcDbVisualStyle
  2
GouraudWithEdges
 70
     3
 71
     2
 72
     2
 73
     1
 90
        2
 40
-0.6
 41
30.0
 62
     5
 63
     7
 74
     1
 91
        4
 64
     7
 65
   257
 75
     1
175
     1
 42
1.0
 92
        0
 66
   257
 43
1.0
 76
     1
 77
     6
 78
     2
 67
     7
 79
     5
170
     0
171
     0
290
     0
174
     0
 93
       13
 44
0.0
173
     0
291
     1
 45
0.0
1001
ACAD
1000
AcDbSavedByObjectVersion
1070
     0
  0
VISUALSTYLE
  5
627
102
{ACAD_REACTORS
330
619
102
}
330
619
100
AcDbVisualStyle
  2
Linepattern
 70
    14
 71
     2
 72
     2
 73
     0
 90
        0
 40
-0.6
 41
-30.0
 62
     5
 63
     7
 74
     1
 91
        4
 64
     7
 65
   257
 75
     7
175
     7
 42
1.0
 92
        8
 66
     7
 43
1.0
 76
     1
 77
     6
 78
     2
 67
     7
 79
     5
170
     0
171
     0
290
     0
174
     0
 93
        1
 44
0.0
173
     0
291
     1
 45
0.0
1001
ACAD
1000
AcDbSavedByObjectVersion
1070
     0
  0
VISUALSTYLE
  5
623
102
{ACAD_REACTORS
330
619
102
}
330
619
100
AcDbVisualStyle
  2
Realistic
 70
     8
 71
     2
 72
     2
 73
     0
 90
        0
 40
-0.6
 41
-30.0
 62
     5
 63
     7
 74
     1
 91
        0
 64
     7
 65
   257
 75
     1
175
     1
 42
1.0
 92
        8
 66
     8
 43
1.0
 76
     1
 77
     6
 78
     2
 67
     7
 79
     5
170
     0
171
     0
290
     0
174
     0
 93
       13
 44
0.0
173
     0
291
     0
 45
0.0
1001
ACAD
1000
AcDbSavedByObjectVersion
1070
     0
  0
VISUALSTYLE
  5
626
102
{ACAD_REACTORS
330
619
102
}
330
619
100
AcDbVisualStyle
  2
Thicken
 70
    13
 71
     2
 72
     2
 73
     0
 90
        0
 40
-0.6
 41
-30.0
 62
     5
 63
     7
 74
     1
 91
        4
 64
     7
 65
   257
 75
     1
175
     1
 42
1.0
 92
       12
 66
     7
 43
1.0
 76
     1
 77
     6
 78
     2
 67
     7
 79
     5
170
     0
171
     0
290
     0
174
     0
 93
        1
 44
0.0
173
     0
291
     1
 45
0.0
1001
ACAD
1000
AcDbSavedByObjectVersion
1070
     0
  0
DICTIONARYVAR
  5
65D
102
{ACAD_REACTORS
330
5B
102
}
330
5B
100
DictionaryVariables
280
     0
  1
1:1
  0
DICTIONARYVAR
  5
65C
102
{ACAD_REACTORS
330
5B
102
}
330
5B
100
DictionaryVariables
280
     0
  1
STANDARD
  0
DICTIONARYVAR
  5
3AA
102
{ACAD_REACTORS
330
5B
102
}
330
5B
100
DictionaryVariables
280
     0
  1
STANDARD
  0
DICTIONARYVAR
  5
5D
102
{ACAD_REACTORS
330
5B
102
}
330
5B
100
DictionaryVariables
280
     0
  1
2
  0
DICTIONARYVAR
  5
5C
102
{ACAD_REACTORS
330
5B
102
}
330
5B
100
DictionaryVariables
280
     0
  1
1
  0
DICTIONARYVAR
  5
65F
102
{ACAD_REACTORS
330
5B
102
}
330
5B
100
DictionaryVariables
280
     0
  1
0
  0
DICTIONARYVAR
  5
65E
102
{ACAD_REACTORS
330
5B
102
}
330
5B
100
DictionaryVariables
280
     0
  1
127
  0
BLOCKLINEARPARAMETER
  5
1E4
330
1E3
100
AcDbEvalExpr
 90
        8
 98
       27
 99
       25
100
AcDbBlockElement
300
d1
 98
       25
 99
      104
1071
        0
100
AcDbBlockParameter
280
     0
281
     0
100
AcDbBlock2PtParameter
1010
57.71399999999999
1020
-5.0
1030
0.0
1011
57.71399999999999
1021
5.0
1031
0.0
170
     4
 91
        0
 91
        0
 91
        0
 91
        0
171
     0
172
     0
173
     0
174
     0
177
     0
100
AcDbBlockLinearParameter
305
d1
306

140
-5.286000000000001
307

 96
        8
141
0.0
142
0.0
143
0.0
175
    13
144
3.0
144
4.0
144
5.0
144
6.0
144
8.0
144
12.0
144
14.0
144
16.0
144
20.0
144
24.0
144
27.0
144
30.0
144
36.0
  0
BLOCKLINEARPARAMETER
  5
1E5
330
1E3
100
AcDbEvalExpr
 90
      184
 98
       27
 99
       25
100
AcDbBlockElement
300
b
 98
       25
 99
      104
1071
        0
100
AcDbBlockParameter
280
     0
281
     0
100
AcDbBlock2PtParameter
1010
60.0
1020
-3.5
1030
0.0
1011
28.0
1021
-3.5
1031
0.0
170
     4
 91
        0
 91
        0
 91
        0
 91
        0
171
     0
172
     0
173
     0
174
     0
177
     0
100
AcDbBlockLinearParameter
305
b
306

140
6.0
307

 96
        8
141
0.0
142
0.0
143
0.0
175
    17
144
18.0
144
20.0
144
22.0
144
24.0
144
28.0
144
36.0
144
40.0
144
44.0
144
52.0
144
57.0
144
60.0
144
65.0
144
66.0
144
72.0
144
73.0
144
84.0
144
85.0
  0
BLOCKLINEARPARAMETER
  5
1E6
330
1E3
100
AcDbEvalExpr
 90
      360
 98
       27
 99
       25
100
AcDbBlockElement
300
k
 98
       25
 99
      104
1071
        0
100
AcDbBlockParameter
280
     0
281
     0
100
AcDbBlock2PtParameter
1010
0.0000000000000056
1020
-6.999999999999996
1030
0.0
1011
-10.0
1021
-7.0
1031
0.0
170
     4
 91
        0
 91
        0
 91
        0
 91
        0
171
     0
172
     0
173
     0
174
     0
177
     0
100
AcDbBlockLinearParameter
305
k
306

140
5.5
307

 96
        8
141
0.0
142
0.0
143
0.0
175
    13
144
3.0
144
4.0
144
5.0
144
6.0
144
8.0
144
12.0
144
14.0
144
16.0
144
20.0
144
24.0
144
27.0
144
30.0
144
36.0
  0
BLOCKLINEARPARAMETER
  5
1E7
330
1E3
100
AcDbEvalExpr
 90
      472
 98
       27
 99
       25
100
AcDbBlockElement
300
d2
 98
       25
 99
      104
1071
        0
100
AcDbBlockParameter
280
     0
281
     0
100
AcDbBlock2PtParameter
1010
0.0000000000000036
1020
-8.0
1030
0.0
1011
0.0000000000000426
1021
8.0
1031
0.0
170
     4
 91
        0
 91
        0
 91
        0
 91
        0
171
     0
172
     0
173
     0
174
     0
177
     0
100
AcDbBlockLinearParameter
305
d2
306

140
22.11080670976818
307

 96
        8
141
0.0
142
0.0
143
0.0
175
    13
144
5.5
144
7.0
144
8.5
144
10.0
144
13.0
144
18.0
144
21.0
144
24.0
144
30.0
144
36.0
144
40.0
144
45.0
144
54.0
  0
BLOCKLOOKUPPARAMETER
  5
1E8
330
1E3
100
AcDbEvalExpr
 90
      528
 98
       27
 99
       25
100
AcDbBlockElement
300
LookupSize
 98
       25
 99
      104
1071
        0
100
AcDbBlockParameter
280
     1
281
     0
100
AcDbBlock1PtParameter
1010
-18.0
1020
0.0
1030
0.0
 93
      536
170
     0
171
     0
100
AcDbBlockLookUpParameter
303
Size
304

 94
      904
  0
BLOCKLOOKUPGRIP
  5
1E9
330
1E3
100
AcDbEvalExpr
 90
      536
 98
       27
 99
       25
100
AcDbBlockElement
300
Grip
 98
       25
 99
      104
1071
        0
100
AcDbBlockGrip
 91
      544
 92
      552
1010
-18.0
1020
0.0
1030
0.0
280
     0
 93
       -1
100
AcDbBlockLookUpGrip
  0
BLOCKGRIPLOCATIONCOMPONENT
  5
1EA
330
1E3
100
AcDbEvalExpr
 90
      544
 98
       27
 99
       25
100
AcDbBlockGripExpr
 91
      528
300
UpdatedX
  0
BLOCKGRIPLOCATIONCOMPONENT
  5
1EB
330
1E3
100
AcDbEvalExpr
 90
      552
 98
       27
 99
       25
100
AcDbBlockGripExpr
 91
      528
300
UpdatedY
  0
BLOCKSTRETCHACTION
  5
1EC
330
1E3
100
AcDbEvalExpr
 90
      608
 98
       27
 99
       25
100
AcDbBlockElement
300
Stretch d1b - 0
 98
       25
 99
      104
1071
        0
100
AcDbBlockAction
 70
     0
 71
     3
330
22A
330
227
330
226
1010
72.5
1020
3.5
1030
0.0
100
AcDbBlockStretchAction
 92
        8
301
EndXDelta
 93
        8
302
EndYDelta
 72
     2
1011
62.0
1021
4.0
1011
25.0
1021
2.0
 73
     3
331
226
 74
     1
 94
        1
331
227
 74
     1
 94
        0
331
22A
 74
     2
 94
        0
 94
        1
 75
     0
140
0.4
141
0.0
280
     0
  0
BLOCKSTRETCHACTION
  5
1ED
330
1E3
100
AcDbEvalExpr
 90
      632
 98
       27
 99
       25
100
AcDbBlockElement
300
Stretch d1 - 0
 98
       25
 99
      104
1071
        0
100
AcDbBlockAction
 70
     0
 71
     4
330
228
330
223
330
229
330
227
1010
72.5
1020
6.5
1030
0.0
100
AcDbBlockStretchAction
 92
        8
301
EndXDelta
 93
        8
302
EndYDelta
 72
     2
1011
64.02217899920002
1021
5.404036250214176
1011
-2.734117981171323
1021
4.135543975008346
 73
     4
331
223
 74
     1
 94
        0
331
227
 74
     1
 94
        1
331
228
 74
     2
 94
        0
 94
        1
331
229
 74
     1
 94
        0
 75
     0
140
0.5
141
0.0
280
     0
  0
BLOCKSTRETCHACTION
  5
1EE
330
1E3
100
AcDbEvalExpr
 90
      664
 98
       27
 99
       25
100
AcDbBlockElement
300
Stretch d1b - 180
 98
       25
 99
      104
1071
        0
100
AcDbBlockAction
 70
     0
 71
     3
330
22B
330
225
330
226
1010
72.5
1020
-4.252965583064622
1030
0.0
100
AcDbBlockStretchAction
 92
        8
301
EndXDelta
 93
        8
302
EndYDelta
 72
     2
1011
62.0
1021
-2.0
1011
25.0
1021
-4.5
 73
     3
331
225
 74
     1
 94
        1
331
226
 74
     1
 94
        0
331
22B
 74
     2
 94
        0
 94
        1
 75
     0
140
0.4
141
3.141592653589792
280
     0
  0
BLOCKSTRETCHACTION
  5
1EF
330
1E3
100
AcDbEvalExpr
 90
      672
 98
       27
 99
       25
100
AcDbBlockElement
300
Stretch d1 - 180
 98
       25
 99
      104
1071
        0
100
AcDbBlockAction
 70
     0
 71
     4
330
224
330
223
330
229
330
225
1010
72.5
1020
-9.0
1030
0.0
100
AcDbBlockStretchAction
 92
        8
301
EndXDelta
 93
        8
302
EndYDelta
 72
     2
1011
61.00186738442635
1021
-4.406454041936115
1011
-2.44282831695574
1021
-5.705793546752031
 73
     4
331
223
 74
     1
 94
        1
331
224
 74
     2
 94
        0
 94
        1
331
225
 74
     1
 94
        0
331
229
 74
     1
 94
        1
 75
     0
140
0.5
141
3.141592653589792
280
     0
  0
BLOCKSTRETCHACTION
  5
1F0
330
1E3
100
AcDbEvalExpr
 90
      720
 98
       27
 99
       25
100
AcDbBlockElement
300
Stretch b
 98
       25
 99
      104
1071
        0
100
AcDbBlockAction
 70
     0
 71
     3
330
223
330
22A
330
22B
1010
27.99999999999994
1020
-25.0
1030
0.0
100
AcDbBlockStretchAction
 92
      184
301
EndXDelta
 93
      184
302
EndYDelta
 72
     2
1011
34.0
1021
10.0
1011
22.0
1021
-12.0
 73
     3
331
223
 74
     2
 94
        0
 94
        1
331
22A
 74
     1
 94
        0
331
22B
 74
     1
 94
        0
 75
     0
140
1.0
141
0.0
280
     0
  0
BLOCKSCALEACTION
  5
1F1
330
1E3
100
AcDbEvalExpr
 90
      896
 98
       27
 99
       25
100
AcDbBlockElement
300
Scale
 98
       25
 99
      104
1071
        0
100
AcDbBlockAction
 70
     1
 91
      528
 71
    11
330
230
330
22F
330
22E
330
22D
330
22C
330
222
330
221
330
220
330
21F
330
21E
330
1E8
1010
-40.0
1020
0.0
1030
0.0
100
AcDbBlockActionWithBasePt
 92
      472
 93
      472
301
UpdatedBaseX
302
UpdatedBaseY
1011
0.0
1021
0.0
1031
0.0
280
     0
1012
0.0
1022
0.0
1032
0.0
100
AcDbBlockScaleAction
 94
      472
 95
      472
 96
      472
303
Scale
304
XScale
305
YScale
  0
BLOCKLOOKUPACTION
  5
1F2
330
1E3
100
AcDbEvalExpr
 90
      904
 98
       27
 99
       25
100
AcDbBlockElement
300
Lookup
 98
       25
 99
      104
1071
        0
100
AcDbBlockAction
 70
     0
 71
     0
1010
-9.999999999999973
1020
-25.0
1030
0.0
100
AcDbBlockLookupAction
 92
        8
 93
        6
301

302
3.000000000000000
302
5.5
302
18
302
3
302
M3
302
M3
302
4
302
7
302
20
302
4
302
M4
302
M4
302
5
302
8.5
302
22
302
5
302
M5
302
M5
302
6
302
10
302
24
302
6
302
M6
302
M6
302
8
302
13
302
28
302
8
302
M8
302
M8
302
10
302
16
302
32
302
10
302
M10
302
M10
302
12
302
18
302
36
302
12
302
M12
302
M12
302
14
302
21
302
40
302
14
302
M14
302
M14
303

 94
        8
 95
       40
 96
        2
282
     0
305
Custom
281
     0
304
UpdatedDistance
303

 94
      472
 95
       40
 96
        2
282
     0
305
Custom
281
     0
304
UpdatedDistance
303

 94
      184
 95
       40
 96
        2
282
     0
305
Custom
281
     0
304
UpdatedDistance
303

 94
      360
 95
       40
 96
        2
282
     0
305
Custom
281
     0
304
UpdatedDistance
303

 94
      905
 95
        1
 96
        0
282
     0
305
Custom
281
     0
304
VisibilityState
303

 94
      528
 95
        1
 96
        0
282
     1
305
Custom
281
     1
304
lookupString
280
     1
  0
BLOCKVISIBILITYPARAMETER
  5
1F3
330
1E3
100
AcDbEvalExpr
 90
      905
 98
       27
 99
       25
100
AcDbBlockElement
300
Visibility State
 98
       25
 99
      104
1071
        0
100
AcDbBlockParameter
280
     0
281
     0
100
AcDbBlock1PtParameter
1010
-9.999999999999973
1020
-20.0
1030
0.0
 93
        0
170
     0
171
     0
100
AcDbBlockVisibilityParameter
281
     1
301
Visibility
302

 91
        0
 93
       19
331
21E
331
21F
331
220
331
221
331
222
331
223
331
224
331
225
331
226
331
227
331
228
331
229
331
22A
331
22B
331
22C
331
22D
331
22E
331
22F
331
230
 92
        8
303
M3
 94
       19
332
21E
332
21F
332
220
332
221
332
222
332
223
332
224
332
225
332
226
332
227
332
228
332
229
332
22A
332
22B
332
22C
332
22D
332
22E
332
22F
332
230
 95
       15
333
1E4
333
1E5
333
1E6
333
1E7
333
1E8
333
1E9
333
1EC
333
1ED
333
1EE
333
1EF
333
1F0
333
1F1
333
1F2
333
1F4
333
214
303
M4
 94
       19
332
21E
332
21F
332
220
332
221
332
222
332
223
332
224
332
225
332
226
332
227
332
228
332
229
332
22A
332
22B
332
22C
332
22D
332
22E
332
22F
332
230
 95
       16
333
1E4
333
1E5
333
1E6
333
1E7
333
1E8
333
1E9
333
1EC
333
1ED
333
1EE
333
1EF
333
1F0
333
1F1
333
1F2
333
1F8
333
1F9
333
215
303
M5
 94
       19
332
21E
332
21F
332
220
332
221
332
222
332
223
332
224
332
225
332
226
332
227
332
228
332
229
332
22A
332
22B
332
22C
332
22D
332
22E
332
22F
332
230
 95
       16
333
1E4
333
1E5
333
1E6
333
1E7
333
1E8
333
1E9
333
1EC
333
1ED
333
1EE
333
1EF
333
1F0
333
1F1
333
1F2
333
1FC
333
1FD
333
216
303
M6
 94
       19
332
21E
332
21F
332
220
332
221
332
222
332
223
332
224
332
225
332
226
332
227
332
228
332
229
332
22A
332
22B
332
22C
332
22D
332
22E
332
22F
332
230
 95
       16
333
1E4
333
1E5
333
1E6
333
1E7
333
1E8
333
1E9
333
1EC
333
1ED
333
1EE
333
1EF
333
1F0
333
1F1
333
1F2
333
200
333
201
333
217
303
M8
 94
       19
332
21E
332
21F
332
220
332
221
332
222
332
223
332
224
332
225
332
226
332
227
332
228
332
229
332
22A
332
22B
332
22C
332
22D
332
22E
332
22F
332
230
 95
       16
333
1E4
333
1E5
333
1E6
333
1E7
333
1E8
333
1E9
333
1EC
333
1ED
333
1EE
333
1EF
333
1F0
333
1F1
333
1F2
333
204
333
205
333
218
303
M10
 94
       19
332
21E
332
21F
332
220
332
221
332
222
332
223
332
224
332
225
332
226
332
227
332
228
332
229
332
22A
332
22B
332
22C
332
22D
332
22E
332
22F
332
230
 95
       16
333
1E4
333
1E5
333
1E6
333
1E7
333
1E8
333
1E9
333
1EC
333
1ED
333
1EE
333
1EF
333
1F0
333
1F1
333
1F2
333
208
333
209
333
219
303
M12
 94
       19
332
21E
332
21F
332
220
332
221
332
222
332
223
332
224
332
225
332
226
332
227
332
228
332
229
332
22A
332
22B
332
22C
332
22D
332
22E
332
22F
332
230
 95
       16
333
1E4
333
1E5
333
1E6
333
1E7
333
1E8
333
1E9
333
1EC
333
1ED
333
1EE
333
1EF
333
1F0
333
1F1
333
1F2
333
20C
333
20D
333
21A
303
M14
 94
       19
332
21E
332
21F
332
220
332
221
332
222
332
223
332
224
332
225
332
226
332
227
332
228
332
229
332
22A
332
22B
332
22C
332
22D
332
22E
332
22F
332
230
 95
       16
333
1E4
333
1E5
333
1E6
333
1E7
333
1E8
333
1E9
333
1EC
333
1ED
333
1EE
333
1EF
333
1F0
333
1F1
333
1F2
333
210
333
211
333
21B
  0
BLOCKLINEARPARAMETER
  5
1F4
330
1E3
100
AcDbEvalExpr
 90
      909
 98
       27
 99
       25
100
AcDbBlockElement
300
LinearM3
 98
       25
 99
      104
1071
        0
100
AcDbBlockParameter
280
     1
281
     0
100
AcDbBlock2PtParameter
1010
0.0
1020
0.0
1030
0.0
1011
60.0
1021
0.0
1031
0.0
170
     4
 91
        0
 91
      910
 91
        0
 91
        0
171
     0
172
     0
173
     1
 94
      910
303
DisplacementX
174
     1
 95
      910
304
DisplacementY
177
     0
100
AcDbBlockLinearParameter
305
Length (M3)
306
Set the bolt length
140
-30.0
307

 96
        8
141
0.0
142
0.0
143
0.0
175
     6
144
25.0
144
30.0
144
35.0
144
40.0
144
45.0
144
50.0
  0
BLOCKLINEARGRIP
  5
1F5
330
1E3
100
AcDbEvalExpr
 90
      910
 98
       27
 99
       25
100
AcDbBlockElement
300
End Grip
 98
       25
 99
      104
1071
        0
100
AcDbBlockGrip
 91
      911
 92
      912
1010
60.0
1020
0.0
1030
0.0
280
     1
 93
       -1
100
AcDbBlockLinearGrip
140
60.0
141
0.0
142
0.0
  0
BLOCKGRIPLOCATIONCOMPONENT
  5
1F6
330
1E3
100
AcDbEvalExpr
 90
      911
 98
       27
 99
       25
  1

 70
    40
140
1.797693134862313E+99
100
AcDbBlockGripExpr
 91
      909
300
UpdatedEndX
  0
BLOCKGRIPLOCATIONCOMPONENT
  5
1F7
330
1E3
100
AcDbEvalExpr
 90
      912
 98
       27
 99
       25
  1

 70
    40
140
1.797693134862313E+99
100
AcDbBlockGripExpr
 91
      909
300
UpdatedEndY
  0
BLOCKLINEARPARAMETER
  5
1F8
330
1E3
100
AcDbEvalExpr
 90
      917
 98
       27
 99
       25
100
AcDbBlockElement
300
Linear
 98
       25
 99
      104
1071
        0
100
AcDbBlockParameter
280
     1
281
     0
100
AcDbBlock2PtParameter
1010
0.0
1020
0.0
1030
0.0
1011
60.0
1021
0.0
1031
0.0
170
     4
 91
        0
 91
      918
 91
        0
 91
        0
171
     0
172
     0
173
     1
 94
      918
303
DisplacementX
174
     1
 95
      918
304
DisplacementY
177
     0
100
AcDbBlockLinearParameter
305
Length (M4)
306
Set the bolt length
140
-35.0
307

 96
        8
141
0.0
142
0.0
143
0.0
175
     7
144
30.0
144
35.0
144
40.0
144
45.0
144
50.0
144
70.0
144
80.0
  0
BLOCKLINEARGRIP
  5
1F9
330
1E3
100
AcDbEvalExpr
 90
      918
 98
       27
 99
       25
100
AcDbBlockElement
300
End Grip
 98
       25
 99
      104
1071
        0
100
AcDbBlockGrip
 91
      919
 92
      920
1010
60.0
1020
0.0
1030
0.0
280
     1
 93
       -1
100
AcDbBlockLinearGrip
140
60.0
141
0.0
142
0.0
  0
BLOCKGRIPLOCATIONCOMPONENT
  5
1FA
330
1E3
100
AcDbEvalExpr
 90
      919
 98
       27
 99
       25
  1

 70
    40
140
1.797693134862313E+99
100
AcDbBlockGripExpr
 91
      917
300
UpdatedEndX
  0
BLOCKGRIPLOCATIONCOMPONENT
  5
1FB
330
1E3
100
AcDbEvalExpr
 90
      920
 98
       27
 99
       25
  1

 70
    40
140
1.797693134862313E+99
100
AcDbBlockGripExpr
 91
      917
300
UpdatedEndY
  0
BLOCKLINEARPARAMETER
  5
1FC
330
1E3
100
AcDbEvalExpr
 90
      924
 98
       27
 99
       25
100
AcDbBlockElement
300
Linear1
 98
       25
 99
      104
1071
        0
100
AcDbBlockParameter
280
     1
281
     0
100
AcDbBlock2PtParameter
1010
0.0
1020
0.0
1030
0.0
1011
60.0
1021
0.0
1031
0.0
170
     4
 91
        0
 91
      925
 91
        0
 91
        0
171
     0
172
     0
173
     1
 94
      925
303
DisplacementX
174
     1
 95
      925
304
DisplacementY
177
     0
100
AcDbBlockLinearParameter
305
Length (M5)
306
Set the bolt length
140
-40.0
307

 96
        8
141
0.0
142
0.0
143
0.0
175
    10
144
30.0
144
35.0
144
40.0
144
45.0
144
50.0
144
55.0
144
70.0
144
80.0
144
90.0
144
100.0
  0
BLOCKLINEARGRIP
  5
1FD
330
1E3
100
AcDbEvalExpr
 90
      925
 98
       27
 99
       25
100
AcDbBlockElement
300
End Grip
 98
       25
 99
      104
1071
        0
100
AcDbBlockGrip
 91
      926
 92
      927
1010
60.0
1020
0.0
1030
0.0
280
     1
 93
       -1
100
AcDbBlockLinearGrip
140
60.0
141
0.0
142
0.0
  0
BLOCKGRIPLOCATIONCOMPONENT
  5
1FE
330
1E3
100
AcDbEvalExpr
 90
      926
 98
       27
 99
       25
  1

 70
    40
140
1.797693134862313E+99
100
AcDbBlockGripExpr
 91
      924
300
UpdatedEndX
  0
BLOCKGRIPLOCATIONCOMPONENT
  5
1FF
330
1E3
100
AcDbEvalExpr
 90
      927
 98
       27
 99
       25
  1

 70
    40
140
1.797693134862313E+99
100
AcDbBlockGripExpr
 91
      924
300
UpdatedEndY
  0
BLOCKLINEARPARAMETER
  5
200
330
1E3
100
AcDbEvalExpr
 90
      931
 98
       27
 99
       25
100
AcDbBlockElement
300
Linear2
 98
       25
 99
      104
1071
        0
100
AcDbBlockParameter
280
     1
281
     0
100
AcDbBlock2PtParameter
1010
0.0000000000000226
1020
0.0
1030
0.0
1011
60.0
1021
0.0
1031
0.0
170
     4
 91
        0
 91
      932
 91
        0
 91
        0
171
     0
172
     0
173
     1
 94
      932
303
DisplacementX
174
     1
 95
      932
304
DisplacementY
177
     0
100
AcDbBlockLinearParameter
305
Length (M6)
306
Set the bolt length
140
-44.99999999999999
307

 96
        8
141
0.0
142
0.0
143
0.0
175
    13
144
35.0
144
40.0
144
45.0
144
50.0
144
55.0
144
65.0
144
70.0
144
75.0
144
80.0
144
90.0
144
100.0
144
110.0
144
120.0
  0
BLOCKLINEARGRIP
  5
201
330
1E3
100
AcDbEvalExpr
 90
      932
 98
       27
 99
       25
100
AcDbBlockElement
300
End Grip
 98
       25
 99
      104
1071
        0
100
AcDbBlockGrip
 91
      933
 92
      934
1010
60.0
1020
0.0
1030
0.0
280
     1
 93
       -1
100
AcDbBlockLinearGrip
140
59.99999999999998
141
0.0
142
0.0
  0
BLOCKGRIPLOCATIONCOMPONENT
  5
202
330
1E3
100
AcDbEvalExpr
 90
      933
 98
       27
 99
       25
  1

 70
    40
140
1.797693134862313E+99
100
AcDbBlockGripExpr
 91
      931
300
UpdatedEndX
  0
BLOCKGRIPLOCATIONCOMPONENT
  5
203
330
1E3
100
AcDbEvalExpr
 90
      934
 98
       27
 99
       25
  1

 70
    40
140
1.797693134862313E+99
100
AcDbBlockGripExpr
 91
      931
300
UpdatedEndY
  0
BLOCKLINEARPARAMETER
  5
204
330
1E3
100
AcDbEvalExpr
 90
      938
 98
       27
 99
       25
100
AcDbBlockElement
300
Linear3
 98
       25
 99
      104
1071
        0
100
AcDbBlockParameter
280
     1
281
     0
100
AcDbBlock2PtParameter
1010
0.0000000000000226
1020
0.0
1030
0.0
1011
60.0
1021
0.0
1031
0.0
170
     4
 91
        0
 91
      939
 91
        0
 91
        0
171
     0
172
     0
173
     1
 94
      939
303
DisplacementX
174
     1
 95
      939
304
DisplacementY
177
     0
100
AcDbBlockLinearParameter
305
Length (M8)
306
Set the bolt length
140
-50.0
307

 96
        8
141
0.0
142
0.0
143
0.0
175
    19
144
40.0
144
45.0
144
50.0
144
55.0
144
65.0
144
70.0
144
75.0
144
80.0
144
85.0
144
90.0
144
100.0
144
110.0
144
120.0
144
130.0
144
140.0
144
150.0
144
160.0
144
180.0
144
200.0
  0
BLOCKLINEARGRIP
  5
205
330
1E3
100
AcDbEvalExpr
 90
      939
 98
       27
 99
       25
100
AcDbBlockElement
300
End Grip
 98
       25
 99
      104
1071
        0
100
AcDbBlockGrip
 91
      940
 92
      941
1010
60.0
1020
0.0
1030
0.0
280
     1
 93
       -1
100
AcDbBlockLinearGrip
140
59.99999999999998
141
0.0
142
0.0
  0
BLOCKGRIPLOCATIONCOMPONENT
  5
206
330
1E3
100
AcDbEvalExpr
 90
      940
 98
       27
 99
       25
  1

 70
    40
140
1.797693134862313E+99
100
AcDbBlockGripExpr
 91
      938
300
UpdatedEndX
  0
BLOCKGRIPLOCATIONCOMPONENT
  5
207
330
1E3
100
AcDbEvalExpr
 90
      941
 98
       27
 99
       25
  1

 70
    40
140
1.797693134862313E+99
100
AcDbBlockGripExpr
 91
      938
300
UpdatedEndY
  0
BLOCKLINEARPARAMETER
  5
208
330
1E3
100
AcDbEvalExpr
 90
      945
 98
       27
 99
       25
100
AcDbBlockElement
300
Linear4
 98
       25
 99
      104
1071
        0
100
AcDbBlockParameter
280
     1
281
     0
100
AcDbBlock2PtParameter
1010
0.0000000000000226
1020
0.0
1030
0.0
1011
60.0
1021
0.0
1031
0.0
170
     4
 91
        0
 91
      946
 91
        0
 91
        0
171
     0
172
     0
173
     1
 94
      946
303
DisplacementX
174
     1
 95
      946
304
DisplacementY
177
     0
100
AcDbBlockLinearParameter
305
Length (M10)
306
Set the bolt length
140
-55.0
307

 96
        8
141
0.0
142
0.0
143
0.0
175
    18
144
45.0
144
50.0
144
55.0
144
65.0
144
70.0
144
75.0
144
80.0
144
85.0
144
90.0
144
100.0
144
110.0
144
120.0
144
130.0
144
140.0
144
150.0
144
160.0
144
180.0
144
200.0
  0
BLOCKLINEARGRIP
  5
209
330
1E3
100
AcDbEvalExpr
 90
      946
 98
       27
 99
       25
100
AcDbBlockElement
300
End Grip
 98
       25
 99
      104
1071
        0
100
AcDbBlockGrip
 91
      947
 92
      948
1010
60.0
1020
0.0
1030
0.0
280
     1
 93
       -1
100
AcDbBlockLinearGrip
140
59.99999999999998
141
0.0
142
0.0
  0
BLOCKGRIPLOCATIONCOMPONENT
  5
20A
330
1E3
100
AcDbEvalExpr
 90
      947
 98
       27
 99
       25
  1

 70
    40
140
1.797693134862313E+99
100
AcDbBlockGripExpr
 91
      945
300
UpdatedEndX
  0
BLOCKGRIPLOCATIONCOMPONENT
  5
20B
330
1E3
100
AcDbEvalExpr
 90
      948
 98
       27
 99
       25
  1

 70
    40
140
1.797693134862313E+99
100
AcDbBlockGripExpr
 91
      945
300
UpdatedEndY
  0
BLOCKLINEARPARAMETER
  5
20C
330
1E3
100
AcDbEvalExpr
 90
      952
 98
       27
 99
       25
100
AcDbBlockElement
300
Linear5
 98
       25
 99
      104
1071
        0
100
AcDbBlockParameter
280
     1
281
     0
100
AcDbBlock2PtParameter
1010
0.0000000000000226
1020
0.0
1030
0.0
1011
60.0
1021
0.0
1031
0.0
170
     4
 91
        0
 91
      953
 91
        0
 91
        0
171
     0
172
     0
173
     1
 94
      953
303
DisplacementX
174
     1
 95
      953
304
DisplacementY
177
     0
100
AcDbBlockLinearParameter
305
Length (M12)
306
Set the bolt length
140
-60.0
307

 96
        8
141
0.0
142
0.0
143
0.0
175
    16
144
55.0
144
65.0
144
70.0
144
75.0
144
80.0
144
85.0
144
90.0
144
100.0
144
110.0
144
120.0
144
130.0
144
140.0
144
150.0
144
160.0
144
180.0
144
200.0
  0
BLOCKLINEARGRIP
  5
20D
330
1E3
100
AcDbEvalExpr
 90
      953
 98
       27
 99
       25
100
AcDbBlockElement
300
End Grip
 98
       25
 99
      104
1071
        0
100
AcDbBlockGrip
 91
      954
 92
      955
1010
60.0
1020
0.0
1030
0.0
280
     1
 93
       -1
100
AcDbBlockLinearGrip
140
59.99999999999998
141
0.0
142
0.0
  0
BLOCKGRIPLOCATIONCOMPONENT
  5
20E
330
1E3
100
AcDbEvalExpr
 90
      954
 98
       27
 99
       25
  1

 70
    40
140
1.797693134862313E+99
100
AcDbBlockGripExpr
 91
      952
300
UpdatedEndX
  0
BLOCKGRIPLOCATIONCOMPONENT
  5
20F
330
1E3
100
AcDbEvalExpr
 90
      955
 98
       27
 99
       25
  1

 70
    40
140
1.797693134862313E+99
100
AcDbBlockGripExpr
 91
      952
300
UpdatedEndY
  0
BLOCKLINEARPARAMETER
  5
210
330
1E3
100
AcDbEvalExpr
 90
      959
 98
       27
 99
       25
100
AcDbBlockElement
300
Linear6
 98
       25
 99
      104
1071
        0
100
AcDbBlockParameter
280
     1
281
     0
100
AcDbBlock2PtParameter
1010
0.0000000000000226
1020
0.0
1030
0.0
1011
60.0
1021
0.0
1031
0.0
170
     4
 91
        0
 91
      960
 91
        0
 91
        0
171
     0
172
     0
173
     1
 94
      960
303
DisplacementX
174
     1
 95
      960
304
DisplacementY
177
     0
100
AcDbBlockLinearParameter
305
Length (M14)
306
Set the bolt length
140
-64.99999999999999
307

 96
        8
141
0.0
142
0.0
143
0.0
175
    12
144
65.0
144
70.0
144
75.0
144
80.0
144
90.0
144
100.0
144
110.0
144
120.0
144
130.0
144
140.0
144
150.0
144
160.0
  0
BLOCKLINEARGRIP
  5
211
330
1E3
100
AcDbEvalExpr
 90
      960
 98
       27
 99
       25
100
AcDbBlockElement
300
End Grip
 98
       25
 99
      104
1071
        0
100
AcDbBlockGrip
 91
      961
 92
      962
1010
60.0
1020
0.0
1030
0.0
280
     1
 93
       -1
100
AcDbBlockLinearGrip
140
59.99999999999998
141
0.0
142
0.0
  0
BLOCKGRIPLOCATIONCOMPONENT
  5
212
330
1E3
100
AcDbEvalExpr
 90
      961
 98
       27
 99
       25
  1

 70
    40
140
1.797693134862313E+99
100
AcDbBlockGripExpr
 91
      959
300
UpdatedEndX
  0
BLOCKGRIPLOCATIONCOMPONENT
  5
213
330
1E3
100
AcDbEvalExpr
 90
      962
 98
       27
 99
       25
  1

 70
    40
140
1.797693134862313E+99
100
AcDbBlockGripExpr
 91
      959
300
UpdatedEndY
  0
BLOCKSTRETCHACTION
  5
214
330
1E3
100
AcDbEvalExpr
 90
      995
 98
       27
 99
       25
100
AcDbBlockElement
300
StretchM3
 98
       25
 99
      104
1071
        0
100
AcDbBlockAction
 70
    14
 91
        8
 91
      184
 91
      248
 91
      917
 91
      924
 91
      931
 91
      938
 91
      945
 91
      952
 91
      959
 91
      966
 91
      973
 91
      980
 91
      987
 71
    26
330
210
330
211
330
20C
330
20D
330
208
330
209
330
204
330
205
330
200
330
201
330
1FC
330
1FD
330
1F8
330
1F9
330
1F5
330
1E5
330
1E4
330
22B
330
22A
330
229
330
228
330
227
330
226
330
225
330
224
330
223
1010
72.5
1020
-30.0
1030
0.0
100
AcDbBlockStretchAction
 92
      909
301
EndXDelta
 93
      909
302
EndYDelta
 72
     2
1011
65.0
1021
9.0
1011
25.0
1021
-15.0
 73
     9
331
223
 74
     2
 94
        0
 94
        1
331
224
 74
     1
 94
        1
331
225
 74
     2
 94
        0
 94
        1
331
226
 74
     2
 94
        0
 94
        1
331
227
 74
     2
 94
        0
 94
        1
331
228
 74
     1
 94
        0
331
229
 74
     2
 94
        0
 94
        1
331
22A
 74
     2
 94
        0
 94
        1
331
22B
 74
     2
 94
        0
 94
        1
 75
     9
 95
        8
 76
     2
 94
        0
 94
        1
 95
      184
 76
     2
 94
        0
 94
        1
 95
      917
 76
     1
 94
        1
 95
      924
 76
     1
 94
        1
 95
      931
 76
     1
 94
        1
 95
      938
 76
     1
 94
        1
 95
      945
 76
     1
 94
        1
 95
      952
 76
     1
 94
        1
 95
      959
 76
     1
 94
        1
140
1.0
141
0.0
280
     0
  0
BLOCKSTRETCHACTION
  5
215
330
1E3
100
AcDbEvalExpr
 90
      997
 98
       27
 99
       25
100
AcDbBlockElement
300
StretchM4
 98
       25
 99
      104
1071
        0
100
AcDbBlockAction
 70
    13
 91
        8
 91
      184
 91
      909
 91
      924
 91
      931
 91
      938
 91
      945
 91
      952
 91
      959
 91
      966
 91
      973
 91
      980
 91
      987
 71
    26
330
210
330
211
330
20C
330
20D
330
208
330
209
330
204
330
205
330
200
330
201
330
1FC
330
1FD
330
1F9
330
1F5
330
1F4
330
1E5
330
1E4
330
22B
330
22A
330
229
330
228
330
227
330
226
330
225
330
224
330
223
1010
72.5
1020
-35.0
1030
0.0
100
AcDbBlockStretchAction
 92
      917
301
EndXDelta
 93
      917
302
EndYDelta
 72
     2
1011
65.0
1021
9.0
1011
25.0
1021
-15.0
 73
     9
331
223
 74
     2
 94
        0
 94
        1
331
224
 74
     1
 94
        1
331
225
 74
     2
 94
        0
 94
        1
331
226
 74
     2
 94
        0
 94
        1
331
227
 74
     2
 94
        0
 94
        1
331
228
 74
     1
 94
        0
331
229
 74
     2
 94
        0
 94
        1
331
22A
 74
     2
 94
        0
 94
        1
331
22B
 74
     2
 94
        0
 94
        1
 75
     9
 95
        8
 76
     2
 94
        0
 94
        1
 95
      184
 76
     2
 94
        0
 94
        1
 95
      909
 76
     1
 94
        1
 95
      924
 76
     1
 94
        1
 95
      931
 76
     1
 94
        1
 95
      938
 76
     1
 94
        1
 95
      945
 76
     1
 94
        1
 95
      952
 76
     1
 94
        1
 95
      959
 76
     1
 94
        1
140
1.0
141
0.0
280
     0
  0
BLOCKSTRETCHACTION
  5
216
330
1E3
100
AcDbEvalExpr
 90
      998
 98
       27
 99
       25
100
AcDbBlockElement
300
StretchM5
 98
       25
 99
      104
1071
        0
100
AcDbBlockAction
 70
    13
 91
        8
 91
      184
 91
      909
 91
      917
 91
      931
 91
      938
 91
      945
 91
      952
 91
      959
 91
      966
 91
      973
 91
      980
 91
      987
 71
    26
330
210
330
211
330
20C
330
20D
330
208
330
209
330
204
330
205
330
200
330
201
330
1FD
330
1F8
330
1F9
330
1F5
330
1F4
330
1E5
330
1E4
330
22B
330
22A
330
229
330
228
330
227
330
226
330
225
330
224
330
223
1010
72.5
1020
-40.0
1030
0.0
100
AcDbBlockStretchAction
 92
      924
301
EndXDelta
 93
      924
302
EndYDelta
 72
     2
1011
65.0
1021
9.0
1011
25.0
1021
-15.0
 73
     9
331
223
 74
     2
 94
        0
 94
        1
331
224
 74
     1
 94
        1
331
225
 74
     2
 94
        0
 94
        1
331
226
 74
     2
 94
        0
 94
        1
331
227
 74
     2
 94
        0
 94
        1
331
228
 74
     1
 94
        0
331
229
 74
     2
 94
        0
 94
        1
331
22A
 74
     2
 94
        0
 94
        1
331
22B
 74
     2
 94
        0
 94
        1
 75
     9
 95
        8
 76
     2
 94
        0
 94
        1
 95
      184
 76
     2
 94
        0
 94
        1
 95
      909
 76
     1
 94
        1
 95
      917
 76
     1
 94
        1
 95
      931
 76
     1
 94
        1
 95
      938
 76
     1
 94
        1
 95
      945
 76
     1
 94
        1
 95
      952
 76
     1
 94
        1
 95
      959
 76
     1
 94
        1
140
1.0
141
0.0
280
     0
  0
BLOCKSTRETCHACTION
  5
217
330
1E3
100
AcDbEvalExpr
 90
      999
 98
       27
 99
       25
100
AcDbBlockElement
300
StretchM6
 98
       25
 99
      104
1071
        0
100
AcDbBlockAction
 70
     9
 91
        8
 91
      184
 91
      909
 91
      917
 91
      924
 91
      938
 91
      945
 91
      952
 91
      959
 71
    26
330
210
330
211
330
20C
330
20D
330
208
330
209
330
204
330
205
330
201
330
1FC
330
1FD
330
1F8
330
1F9
330
1F5
330
1F4
330
1E5
330
1E4
330
22B
330
22A
330
229
330
228
330
227
330
226
330
225
330
224
330
223
1010
72.5
1020
-45.0
1030
0.0
100
AcDbBlockStretchAction
 92
      931
301
EndXDelta
 93
      931
302
EndYDelta
 72
     2
1011
65.0
1021
9.0
1011
25.0
1021
-15.0
 73
     9
331
223
 74
     2
 94
        0
 94
        1
331
224
 74
     1
 94
        1
331
225
 74
     2
 94
        0
 94
        1
331
226
 74
     2
 94
        0
 94
        1
331
227
 74
     2
 94
        0
 94
        1
331
228
 74
     1
 94
        0
331
229
 74
     2
 94
        0
 94
        1
331
22A
 74
     2
 94
        0
 94
        1
331
22B
 74
     2
 94
        0
 94
        1
 75
     9
 95
        8
 76
     2
 94
        0
 94
        1
 95
      184
 76
     2
 94
        0
 94
        1
 95
      909
 76
     1
 94
        1
 95
      917
 76
     1
 94
        1
 95
      924
 76
     1
 94
        1
 95
      938
 76
     1
 94
        1
 95
      945
 76
     1
 94
        1
 95
      952
 76
     1
 94
        1
 95
      959
 76
     1
 94
        1
140
1.0
141
0.0
280
     0
  0
BLOCKSTRETCHACTION
  5
218
330
1E3
100
AcDbEvalExpr
 90
     1000
 98
       27
 99
       25
100
AcDbBlockElement
300
StretchM8
 98
       25
 99
      104
1071
        0
100
AcDbBlockAction
 70
     9
 91
        8
 91
      184
 91
      909
 91
      917
 91
      924
 91
      931
 91
      945
 91
      952
 91
      959
 71
    26
330
210
330
211
330
20C
330
20D
330
208
330
209
330
205
330
200
330
201
330
1FC
330
1FD
330
1F8
330
1F9
330
1F5
330
1F4
330
1E5
330
1E4
330
22B
330
22A
330
229
330
228
330
227
330
226
330
225
330
224
330
223
1010
72.5
1020
-50.0
1030
0.0
100
AcDbBlockStretchAction
 92
      938
301
EndXDelta
 93
      938
302
EndYDelta
 72
     2
1011
65.0
1021
9.0
1011
25.0
1021
-15.0
 73
     9
331
223
 74
     2
 94
        0
 94
        1
331
224
 74
     1
 94
        1
331
225
 74
     2
 94
        0
 94
        1
331
226
 74
     2
 94
        0
 94
        1
331
227
 74
     2
 94
        0
 94
        1
331
228
 74
     1
 94
        0
331
229
 74
     2
 94
        0
 94
        1
331
22A
 74
     2
 94
        0
 94
        1
331
22B
 74
     2
 94
        0
 94
        1
 75
     9
 95
        8
 76
     2
 94
        0
 94
        1
 95
      184
 76
     2
 94
        0
 94
        1
 95
      909
 76
     1
 94
        1
 95
      917
 76
     1
 94
        1
 95
      924
 76
     1
 94
        1
 95
      931
 76
     1
 94
        1
 95
      945
 76
     1
 94
        1
 95
      952
 76
     1
 94
        1
 95
      959
 76
     1
 94
        1
140
1.0
141
0.0
280
     0
  0
BLOCKSTRETCHACTION
  5
219
330
1E3
100
AcDbEvalExpr
 90
     1001
 98
       27
 99
       25
100
AcDbBlockElement
300
StretchM10
 98
       25
 99
      104
1071
        0
100
AcDbBlockAction
 70
     9
 91
        8
 91
      184
 91
      909
 91
      917
 91
      924
 91
      931
 91
      938
 91
      952
 91
      959
 71
    26
330
210
330
211
330
20C
330
20D
330
209
330
204
330
205
330
200
330
201
330
1FC
330
1FD
330
1F8
330
1F9
330
1F5
330
1F4
330
1E5
330
1E4
330
22B
330
22A
330
229
330
228
330
227
330
226
330
225
330
224
330
223
1010
72.5
1020
-55.0
1030
0.0
100
AcDbBlockStretchAction
 92
      945
301
EndXDelta
 93
      945
302
EndYDelta
 72
     2
1011
65.0
1021
9.0
1011
25.0
1021
-15.0
 73
     9
331
223
 74
     2
 94
        0
 94
        1
331
224
 74
     1
 94
        1
331
225
 74
     2
 94
        0
 94
        1
331
226
 74
     2
 94
        0
 94
        1
331
227
 74
     2
 94
        0
 94
        1
331
228
 74
     1
 94
        0
331
229
 74
     2
 94
        0
 94
        1
331
22A
 74
     2
 94
        0
 94
        1
331
22B
 74
     2
 94
        0
 94
        1
 75
     9
 95
        8
 76
     2
 94
        0
 94
        1
 95
      184
 76
     2
 94
        0
 94
        1
 95
      909
 76
     1
 94
        1
 95
      917
 76
     1
 94
        1
 95
      924
 76
     1
 94
        1
 95
      931
 76
     1
 94
        1
 95
      938
 76
     1
 94
        1
 95
      952
 76
     1
 94
        1
 95
      959
 76
     1
 94
        1
140
1.0
141
0.0
280
     0
  0
BLOCKSTRETCHACTION
  5
21A
330
1E3
100
AcDbEvalExpr
 90
     1002
 98
       27
 99
       25
100
AcDbBlockElement
300
StretchM12
 98
       25
 99
      104
1071
        0
100
AcDbBlockAction
 70
     9
 91
        8
 91
      184
 91
      909
 91
      917
 91
      924
 91
      931
 91
      938
 91
      945
 91
      959
 71
    26
330
210
330
211
330
20D
330
208
330
209
330
204
330
205
330
200
330
201
330
1FC
330
1FD
330
1F8
330
1F9
330
1F5
330
1F4
330
1E5
330
1E4
330
22B
330
22A
330
229
330
228
330
227
330
226
330
225
330
224
330
223
1010
72.5
1020
-60.0
1030
0.0
100
AcDbBlockStretchAction
 92
      952
301
EndXDelta
 93
      952
302
EndYDelta
 72
     2
1011
65.0
1021
9.0
1011
25.0
1021
-15.0
 73
     9
331
223
 74
     2
 94
        0
 94
        1
331
224
 74
     1
 94
        1
331
225
 74
     2
 94
        0
 94
        1
331
226
 74
     2
 94
        0
 94
        1
331
227
 74
     2
 94
        0
 94
        1
331
228
 74
     1
 94
        0
331
229
 74
     2
 94
        0
 94
        1
331
22A
 74
     2
 94
        0
 94
        1
331
22B
 74
     2
 94
        0
 94
        1
 75
     9
 95
        8
 76
     2
 94
        0
 94
        1
 95
      184
 76
     2
 94
        0
 94
        1
 95
      909
 76
     1
 94
        1
 95
      917
 76
     1
 94
        1
 95
      924
 76
     1
 94
        1
 95
      931
 76
     1
 94
        1
 95
      938
 76
     1
 94
        1
 95
      945
 76
     1
 94
        1
 95
      959
 76
     1
 94
        1
140
1.0
141
0.0
280
     0
  0
BLOCKSTRETCHACTION
  5
21B
330
1E3
100
AcDbEvalExpr
 90
     1003
 98
       27
 99
       25
100
AcDbBlockElement
300
StretchM14
 98
       25
 99
      104
1071
        0
100
AcDbBlockAction
 70
     9
 91
        8
 91
      184
 91
      909
 91
      917
 91
      924
 91
      931
 91
      938
 91
      945
 91
      952
 71
    26
330
211
330
20C
330
20D
330
208
330
209
330
204
330
205
330
200
330
201
330
1FC
330
1FD
330
1F8
330
1F9
330
1F5
330
1F4
330
1E5
330
1E4
330
22B
330
22A
330
229
330
228
330
227
330
226
330
225
330
224
330
223
1010
72.5
1020
-65.0
1030
0.0
100
AcDbBlockStretchAction
 92
      959
301
EndXDelta
 93
      959
302
EndYDelta
 72
     2
1011
65.0
1021
9.0
1011
25.0
1021
-15.0
 73
     9
331
223
 74
     2
 94
        0
 94
        1
331
224
 74
     1
 94
        1
331
225
 74
     2
 94
        0
 94
        1
331
226
 74
     2
 94
        0
 94
        1
331
227
 74
     2
 94
        0
 94
        1
331
228
 74
     1
 94
        0
331
229
 74
     2
 94
        0
 94
        1
331
22A
 74
     2
 94
        0
 94
        1
331
22B
 74
     2
 94
        0
 94
        1
 75
     9
 95
        8
 76
     2
 94
        0
 94
        1
 95
      184
 76
     2
 94
        0
 94
        1
 95
      909
 76
     1
 94
        1
 95
      917
 76
     1
 94
        1
 95
      924
 76
     1
 94
        1
 95
      931
 76
     1
 94
        1
 95
      938
 76
     1
 94
        1
 95
      945
 76
     1
 94
        1
 95
      952
 76
     1
 94
        1
140
1.0
141
0.0
280
     0
  0
DICTIONARY
  5
664
330
1E
100
AcDbDictionary
280
     1
281
     1
  3
ACAD_XREC_ROUNDTRIP
360
665
  0
DICTIONARY
  5
668
330
26
100
AcDbDictionary
280
     1
281
     1
  3
ACAD_XREC_ROUNDTRIP
360
669
  0
DICTIONARY
  5
666
330
22
100
AcDbDictionary
280
     1
281
     1
  3
ACAD_XREC_ROUNDTRIP
360
667
  0
DICTIONARY
  5
60A
330
609
100
AcDbDictionary
280
     1
281
     1
  3
ACAD_XREC_ROUNDTRIP
360
66C
  3
BUMPTILE
360
60C
  3
DIFFUSETILE
360
60B
  3
OPACITYTILE
360
60F
  3
REFLECTIONTILE
360
60E
  3
REFRACTIONTILE
360
610
  3
SPECULARTILE
360
60D
  0
DICTIONARY
  5
602
330
601
100
AcDbDictionary
280
     1
281
     1
  3
ACAD_XREC_ROUNDTRIP
360
66B
  3
BUMPTILE
360
604
  3
DIFFUSETILE
360
603
  3
OPACITYTILE
360
607
  3
REFLECTIONTILE
360
606
  3
REFRACTIONTILE
360
608
  3
SPECULARTILE
360
605
  0
DICTIONARY
  5
612
330
611
100
AcDbDictionary
280
     1
281
     1
  3
ACAD_XREC_ROUNDTRIP
360
66D
  3
BUMPTILE
360
614
  3
DIFFUSETILE
360
613
  3
OPACITYTILE
360
617
  3
REFLECTIONTILE
360
616
  3
REFRACTIONTILE
360
618
  3
SPECULARTILE
360
615
  0
DICTIONARY
  5
660
330
1DE
100
AcDbDictionary
280
     1
281
     1
  3
ACAD_ROUNDTRIP_2008_TABLESTYLE_CELLSTYLEMAP
360
661
  3
ACAD_XREC_ROUNDTRIP
360
66A
  0
XRECORD
  5
665
102
{ACAD_REACTORS
330
664
102
}
330
664
100
AcDbXrecord
280
     1
102
SHADEPLOT
 70
     0
102
SHADEPLOTRESLEVEL
 70
     2
102
SHADEPLOTCUSTOMDPI
 70
   300
  0
XRECORD
  5
669
102
{ACAD_REACTORS
330
668
102
}
330
668
100
AcDbXrecord
280
     1
102
SHADEPLOT
 70
     0
102
SHADEPLOTRESLEVEL
 70
     2
102
SHADEPLOTCUSTOMDPI
 70
   300
  0
XRECORD
  5
667
102
{ACAD_REACTORS
330
666
102
}
330
666
100
AcDbXrecord
280
     1
102
SHADEPLOT
 70
     0
102
SHADEPLOTRESLEVEL
 70
     2
102
SHADEPLOTCUSTOMDPI
 70
   300
  0
XRECORD
  5
66C
102
{ACAD_REACTORS
330
60A
102
}
330
60A
100
AcDbXrecord
280
     1
102
MATERIAL
148
0.0
149
0.0
149
0.0
 93
        0
 94
      127
282
     0
 72
     0
 77
     0
171
     0
175
     0
179
     0
273
     0
  0
XRECORD
  5
60C
102
{ACAD_REACTORS
330
60A
102
}
330
60A
100
AcDbXrecord
280
     1
270
     1
271
     1
  0
XRECORD
  5
60B
102
{ACAD_REACTORS
330
60A
102
}
330
60A
100
AcDbXrecord
280
     1
270
     1
271
     1
  0
XRECORD
  5
60F
102
{ACAD_REACTORS
330
60A
102
}
330
60A
100
AcDbXrecord
280
     1
270
     1
271
     1
  0
XRECORD
  5
60E
102
{ACAD_REACTORS
330
60A
102
}
330
60A
100
AcDbXrecord
280
     1
270
     1
271
     1
  0
XRECORD
  5
610
102
{ACAD_REACTORS
330
60A
102
}
330
60A
100
AcDbXrecord
280
     1
270
     1
271
     1
  0
XRECORD
  5
60D
102
{ACAD_REACTORS
330
60A
102
}
330
60A
100
AcDbXrecord
280
     1
270
     1
271
     1
  0
XRECORD
  5
66B
102
{ACAD_REACTORS
330
602
102
}
330
602
100
AcDbXrecord
280
     1
102
MATERIAL
148
0.0
149
0.0
149
0.0
 93
        0
 94
      127
282
     0
 72
     0
 77
     0
171
     0
175
     0
179
     0
273
     0
  0
XRECORD
  5
604
102
{ACAD_REACTORS
330
602
102
}
330
602
100
AcDbXrecord
280
     1
270
     1
271
     1
  0
XRECORD
  5
603
102
{ACAD_REACTORS
330
602
102
}
330
602
100
AcDbXrecord
280
     1
270
     1
271
     1
  0
XRECORD
  5
607
102
{ACAD_REACTORS
330
602
102
}
330
602
100
AcDbXrecord
280
     1
270
     1
271
     1
  0
XRECORD
  5
606
102
{ACAD_REACTORS
330
602
102
}
330
602
100
AcDbXrecord
280
     1
270
     1
271
     1
  0
XRECORD
  5
608
102
{ACAD_REACTORS
330
602
102
}
330
602
100
AcDbXrecord
280
     1
270
     1
271
     1
  0
XRECORD
  5
605
102
{ACAD_REACTORS
330
602
102
}
330
602
100
AcDbXrecord
280
     1
270
     1
271
     1
  0
XRECORD
  5
66D
102
{ACAD_REACTORS
330
612
102
}
330
612
100
AcDbXrecord
280
     1
102
MATERIAL
148
0.0
149
0.0
149
0.0
 93
        0
 94
      127
282
     0
 72
     0
 77
     0
171
     0
175
     0
179
     0
273
     0
  0
XRECORD
  5
614
102
{ACAD_REACTORS
330
612
102
}
330
612
100
AcDbXrecord
280
     1
270
     1
271
     1
  0
XRECORD
  5
613
102
{ACAD_REACTORS
330
612
102
}
330
612
100
AcDbXrecord
280
     1
270
     1
271
     1
  0
XRECORD
  5
617
102
{ACAD_REACTORS
330
612
102
}
330
612
100
AcDbXrecord
280
     1
270
     1
271
     1
  0
XRECORD
  5
616
102
{ACAD_REACTORS
330
612
102
}
330
612
100
AcDbXrecord
280
     1
270
     1
271
     1
  0
XRECORD
  5
618
102
{ACAD_REACTORS
330
612
102
}
330
612
100
AcDbXrecord
280
     1
270
     1
271
     1
  0
XRECORD
  5
615
102
{ACAD_REACTORS
330
612
102
}
330
612
100
AcDbXrecord
280
     1
270
     1
271
     1
  0
CELLSTYLEMAP
  5
661
102
{ACAD_REACTORS
330
660
102
}
330
660
100
AcDbCellStyleMap
 90
        3
300
CELLSTYLE
  1
TABLEFORMAT_BEGIN
 90
        5
170
     1
 91
        0
 92
    32768
 62
   257
 93
        1
300
CONTENTFORMAT
  1
CONTENTFORMAT_BEGIN
 90
        0
 91
        0
 92
        4
 93
        0
300

 40
0.0
140
1.0
 94
        5
 62
     0
340
11
144
6.0
309
CONTENTFORMAT_END
171
     1
301
MARGIN
  1
CELLMARGIN_BEGIN
 40
1.5
 40
1.5
 40
1.5
 40
1.5
 40
0.18
 40
0.18
309
CELLMARGIN_END
 94
        6
 95
        1
302
GRIDFORMAT
  1
GRIDFORMAT_BEGIN
 90
        0
 91
        1
 62
     0
 92
       -2
340
0
 93
        0
 40
0.045
309
GRIDFORMAT_END
 95
        2
302
GRIDFORMAT
  1
GRIDFORMAT_BEGIN
 90
        0
 91
        1
 62
     0
 92
       -2
340
0
 93
        0
 40
0.045
309
GRIDFORMAT_END
 95
        4
302
GRIDFORMAT
  1
GRIDFORMAT_BEGIN
 90
        0
 91
        1
 62
     0
 92
       -2
340
0
 93
        0
 40
0.045
309
GRIDFORMAT_END
 95
        8
302
GRIDFORMAT
  1
GRIDFORMAT_BEGIN
 90
        0
 91
        1
 62
     0
 92
       -2
340
0
 93
        0
 40
0.045
309
GRIDFORMAT_END
 95
       16
302
GRIDFORMAT
  1
GRIDFORMAT_BEGIN
 90
        0
 91
        1
 62
     0
 92
       -2
340
0
 93
        0
 40
0.045
309
GRIDFORMAT_END
 95
       32
302
GRIDFORMAT
  1
GRIDFORMAT_BEGIN
 90
        0
 91
        1
 62
     0
 92
       -2
340
0
 93
        0
 40
0.045
309
GRIDFORMAT_END
309
TABLEFORMAT_END
  1
CELLSTYLE_BEGIN
 90
        1
 91
        1
300
_TITLE
309
CELLSTYLE_END
300
CELLSTYLE
  1
TABLEFORMAT_BEGIN
 90
        5
170
     1
 91
        0
 92
        0
 62
   257
 93
        1
300
CONTENTFORMAT
  1
CONTENTFORMAT_BEGIN
 90
        0
 91
        0
 92
        4
 93
        0
300

 40
0.0
140
1.0
 94
        5
 62
     0
340
11
144
4.5
309
CONTENTFORMAT_END
171
     1
301
MARGIN
  1
CELLMARGIN_BEGIN
 40
1.5
 40
1.5
 40
1.5
 40
1.5
 40
0.18
 40
0.18
309
CELLMARGIN_END
 94
        6
 95
        1
302
GRIDFORMAT
  1
GRIDFORMAT_BEGIN
 90
        0
 91
        1
 62
     0
 92
       -2
340
0
 93
        0
 40
0.045
309
GRIDFORMAT_END
 95
        2
302
GRIDFORMAT
  1
GRIDFORMAT_BEGIN
 90
        0
 91
        1
 62
     0
 92
       -2
340
0
 93
        0
 40
0.045
309
GRIDFORMAT_END
 95
        4
302
GRIDFORMAT
  1
GRIDFORMAT_BEGIN
 90
        0
 91
        1
 62
     0
 92
       -2
340
0
 93
        0
 40
0.045
309
GRIDFORMAT_END
 95
        8
302
GRIDFORMAT
  1
GRIDFORMAT_BEGIN
 90
        0
 91
        1
 62
     0
 92
       -2
340
0
 93
        0
 40
0.045
309
GRIDFORMAT_END
 95
       16
302
GRIDFORMAT
  1
GRIDFORMAT_BEGIN
 90
        0
 91
        1
 62
     0
 92
       -2
340
0
 93
        0
 40
0.045
309
GRIDFORMAT_END
 95
       32
302
GRIDFORMAT
  1
GRIDFORMAT_BEGIN
 90
        0
 91
        1
 62
     0
 92
       -2
340
0
 93
        0
 40
0.045
309
GRIDFORMAT_END
309
TABLEFORMAT_END
  1
CELLSTYLE_BEGIN
 90
        2
 91
        1
300
_HEADER
309
CELLSTYLE_END
300
CELLSTYLE
  1
TABLEFORMAT_BEGIN
 90
        5
170
     1
 91
        0
 92
        0
 62
   257
 93
        1
300
CONTENTFORMAT
  1
CONTENTFORMAT_BEGIN
 90
        0
 91
        0
 92
        4
 93
        0
300

 40
0.0
140
1.0
 94
        2
 62
     0
340
11
144
4.5
309
CONTENTFORMAT_END
171
     1
301
MARGIN
  1
CELLMARGIN_BEGIN
 40
1.5
 40
1.5
 40
1.5
 40
1.5
 40
0.18
 40
0.18
309
CELLMARGIN_END
 94
        6
 95
        1
302
GRIDFORMAT
  1
GRIDFORMAT_BEGIN
 90
        0
 91
        1
 62
     0
 92
       -2
340
0
 93
        0
 40
0.045
309
GRIDFORMAT_END
 95
        2
302
GRIDFORMAT
  1
GRIDFORMAT_BEGIN
 90
        0
 91
        1
 62
     0
 92
       -2
340
0
 93
        0
 40
0.045
309
GRIDFORMAT_END
 95
        4
302
GRIDFORMAT
  1
GRIDFORMAT_BEGIN
 90
        0
 91
        1
 62
     0
 92
       -2
340
0
 93
        0
 40
0.045
309
GRIDFORMAT_END
 95
        8
302
GRIDFORMAT
  1
GRIDFORMAT_BEGIN
 90
        0
 91
        1
 62
     0
 92
       -2
340
0
 93
        0
 40
0.045
309
GRIDFORMAT_END
 95
       16
302
GRIDFORMAT
  1
GRIDFORMAT_BEGIN
 90
        0
 91
        1
 62
     0
 92
       -2
340
0
 93
        0
 40
0.045
309
GRIDFORMAT_END
 95
       32
302
GRIDFORMAT
  1
GRIDFORMAT_BEGIN
 90
        0
 91
        1
 62
     0
 92
       -2
340
0
 93
        0
 40
0.045
309
GRIDFORMAT_END
309
TABLEFORMAT_END
  1
CELLSTYLE_BEGIN
 90
        3
 91
        2
300
_DATA
309
CELLSTYLE_END
  0
XRECORD
  5
66A
102
{ACAD_REACTORS
330
660
102
}
330
660
100
AcDbXrecord
280
     1
102
ACAD_ROUNDTRIP_PRE2007_TABLESTYLE
 90
        4
 91
        0
  1

 92
        4
 93
        0
  2

 94
        4
 95
        0
  3

  0
ENDSEC
  0
EOF
